Fbi by The Shadows

Fbi tab by The Shadows

Guitar tabs

The Shadows - FBI
              Tab by:Marko Marinkovic
              From:The best of Shadows-25
years at the top
              Version:Studio


I always wanted to play this stuff, so I hooked up to
the net, and tried to find the tab for it, but I
couldn’t, so I decided to tab it out myself. I’m not
saying that this is the correct way of playing it, but
at least it should be helpfull, after all, I’m only
sixteen, what can I tell?

Here goes the famous intro:

E|---------|---------|---------| Repeat 2x
B|---------|---------|---------|
G|---5-7/9-|---7-5---|---------|
D|-7-------|-7-----7-|---------|
A|---------|---------|---------|
E|---------|---------|---------|

                        Speed
up
E|-----5-------|--------------|-------------|-------------|------------|-------|
B|-----5-8-5---|--------------|-------------|-------------|------------|-------|
G|---5-------7-|-5-7/9-9-7-5--|---5-7-9-7-5-|-7-9-7-5-7-9-|-7-5-7-9-7-5|-------|
D|-7-----------|------------7-|-7-----------|-------------|------------|-7-7---|
A|-------------|--------------|-------------|-------------|------------|-------|
E|-------------|--------------|-------------|-------------|------------|-------|

Repeat both sections then:

E|--------------------|--------------------|-----------------------|
B|--------------------|--------------------|-----------------------|
G|--------------------|--------------------|-----------------------|
D|------6-6-6-9-9-9-6-|------4-4-4-7-7-7-4-|------8-8-8-11-11-11-9-|
A|-/7-7---------------|-/5-5---------------|-/9-9------------------|
E|--------------------|--------------------|-----------------------|


E|--------------------|
B|--------------------|
G|--------------------|
D|------6-6-6-9-9-9-6-|
A|-/7-7---------------|
E|--------------------|

Repeat (something slightly changes, but I felt no need
to tab it out, it’s easy, just begin lower and go up
your neck with the same pattern) then play the ending:

E|-------------|-------------|------------|
B|-------------|-------------|------------|
G|-------------|-------------|------------|
D|-------------|-------------|------------|
A|-7-7-7-5-5-5-|-3-3-3-2-2-2-|-0----------|
E|-------------|-------------|------------|

Then the solo which is also easy, and I think it’s
better to improvise it then to play the same, but you
can do both when you got the correct scale (pentatonic
Emaj I think??):

E------------------------------------------12--15--
B----------------------------------12--15----------
G--------------------------12--14------------------
D------------------12--14--------------------------
A----------12--14----------------------------------
E--12--15------------------------------------------

If you have any requests, suggestions or else you can
e-mail me to: mrlja5@yahoo.com or send an sms
to:+38598602220.
Greetings from Croatia and good luck with playing!

Find guitar tabs and chords

A B C D E F G H I J K L M N O P Q R S T U V W X Y Z #