Fbi by The Shadows

Fbi bass tab by The Shadows

Bass tabs

Shadows-FBI

Basstab by Jan Bjorklund, Finland
You are welcome to request for basstabs!
Fingering and positions as suggested by TablEdit, please use common sense!

TablEdited by Jan Bjorklund
Tuning : E A D G 	Time Signature: 12/8

 |      |      |      |
|-2-----------------------2------------------------|
|-------------2-----------------------2------------|
|--------------------------------------------------|
|--------------------------------------------------|

 |      |      |      |
|-2-----------------------2------------------------|
|-------------2-----------------------2------------|
|--------------------------------------------------|
|--------------------------------------------------|

 |      |      |      |
||2-----------------------2------------------------|
|*------------2-----------------------2------------|
|*-------------------------------------------------|
||-------------------------------------------------|

 |      |      |      |
|-2-----------------------2------------------------|
|-------------2-----------------------2------------|
|--------------------------------------------------|
|--------------------------------------------------|

 |      |      |      |
|-2-----------------------2-----------------------||
|-------------2-----------------------2-----------*|
|-------------------------------------------------*|
|-------------------------------------------------||

 |      |      |      |
|--------------------------------------------------|
|-0-----------0-----------0-------0---0------------|
|--------------------------------------------------|
|--------------------------------------------------|

 |      |      |      |
|--------------------------------------------------|
|-2-------2---2-------2---2-------2---2-------2----|
|--------------------------------------------------|
|--------------------------------------------------|

 |      |      |      |
|-2-----------------------2------------------------|
|-------------2-----------------------2------------|
|--------------------------------------------------|
|--------------------------------------------------|

 |      |      |      |
|-2-----------------------2-----------------------||
|-------------2-----------------------2-----------*|
|-------------------------------------------------*|
|-------------------------------------------------||

 |      |      |      |
|--------------------------------------------------|
|-2-----------2-------2---2-----------2-------2----|
|--------------------------------------------------|
|--------------------------------------------------|

 |      |      |      |
|--------------------------------------------------|
|--------------------------------------------------|
|-3-------3-----------3---3-------3---3-------3----|
|--------------------------------------------------|

 |      |      |      |
|--------------------------------------------------|
|-3-------3---3-------3---3-------3---2-------3----|
|--------------------------------------------------|
|--------------------------------------------------|

 |      |      |      |
|--------------------------------------------------|
|-2-------2---2-------2---2-------2---2-------2----|
|--------------------------------------------------|
|--------------------------------------------------|

 |      |      |      |
|--------------------------------------------------|
|--------------------------------------------------|
|-3-------3---3-------3---3-------3---3-------3----|
|--------------------------------------------------|

 |      |      |      |
|--------------------------------------------------|
|-3-------3---3-------3---3-------3---3-------3----|
|--------------------------------------------------|
|--------------------------------------------------|

 |      |      |      |
|-4-------4---4-------4---4-------4---4------------|
|--------------------------------------------------|
|--------------------------------------------------|
|--------------------------------------------------|

 |      |      |      |
|--------------------------------------------------|
|-2-------2---2-------2---2-------2---2------------|
|--------------------------------------------------|
|--------------------------------------------------|

 |      |      |      |
|-4-----------4-------4---4-------4---4------------|
|---------------------------------------------2----|
|--------------------------------------------------|
|--------------------------------------------------|

 |      |      |      |
|--------------------------------------------------|
|-2-----------2------------------------------------|
|--------------------------------------------------|
|--------------------------------------------------|

 |      |      |      |
|--------------------------------------------------|
|-2-----------2-------2---2-----------2-------2----|
|--------------------------------------------------|
|--------------------------------------------------|

 |      |      |      |
|--------------------------------------------------|
|--------------------------------------------------|
|-3-------3---3-------3---3-------3---3-------3----|
|--------------------------------------------------|

 |      |      |      |
|--------------------------------------------------|
|-3-------3---3-------3---3-------3---3-------3----|
|--------------------------------------------------|
|--------------------------------------------------|

 |      |      |      |
|--------------------------------------------------|
|-2-------2---2-------2---2-------2---2-------2----|
|--------------------------------------------------|
|--------------------------------------------------|

 |      |      |      |
|--------------------------------------------------|
|--------------------------------------------------|
|-3-------3---3-------3---3-------3---3-------3----|
|--------------------------------------------------|

 |      |      |      |
|--------------------------------------------------|
|-3-------3---3-------3---3-------3---3-------3----|
|--------------------------------------------------|
|--------------------------------------------------|

 |      |      |      |
|-4-------4---4-------4---4-------4---4------------|
|---------------------------------------------2----|
|--------------------------------------------------|
|--------------------------------------------------|

 |      |      |      |
|--------------------------------------------------|
|-2-------2---2-------2---2-------2---2-------2----|
|--------------------------------------------------|
|--------------------------------------------------|

 |      |      |      |
|-4-------4---4-----------4-------4---4------------|
|--------------------------------------------------|
|--------------------------------------------------|
|--------------------------------------------------|

 |      |      |      |
|--------------------------------------------------|
|-2-------2---2-------2---2-----------2------------|
|--------------------------------------------------|
|--------------------------------------------------|

 |      |      |      |
|-2-----------------------2------------------------|
|-------------2-----------------------2------------|
|--------------------------------------------------|
|--------------------------------------------------|

 |      |      |      |
|-2-----------------------2------------------------|
|-------------2-----------------------2------------|
|--------------------------------------------------|
|--------------------------------------------------|

 |      |      |      |
|-2-----------------------2------------------------|
|-------------2-----------------------2------------|
|--------------------------------------------------|
|--------------------------------------------------|

 |      |      |      |
|-2-----------------------2------------------------|
|-------------2------------------------------------|
|--------------------------------------------------|
|--------------------------------------------------|

 |      |      |      |
|-2-----------------------2------------------------|
|-------------2-----------------------2------------|
|--------------------------------------------------|
|--------------------------------------------------|

 |      |      |      |
|-2------------------------------------------------|
|-------------2-----------------------2------------|
|--------------------------------------------------|
|--------------------------------------------------|

 |      |      |      |
|--------------------------------------------------|
|-------------0-----------0-----------0------------|
|--------------------------------------------------|
|--------------------------------------------------|

 |      |      |      |
|--------------------------------------------------|
|-------------2-------2---------------2------------|
|--------------------------------------------------|
|--------------------------------------------------|

 |      |      |      |
|-2-----------------------2------------------------|
|-------------2-----------------------2------------|
|--------------------------------------------------|
|--------------------------------------------------|

 |      |      |      |
|-2------------------------------------------------|
|-------------2-----------------------2------------|
|--------------------------------------------------|
|--------------------------------------------------|

 |      |      |      |
|-2-----------------------2------------------------|
|-------------2-----------------------2------------|
|--------------------------------------------------|
|--------------------------------------------------|

 |      |      |      |
|-------------------------2------------------------|
|-------------------------------------2------------|
|--------------------------------------------------|
|--------------------------------------------------|

 |      |      |      |
|-------------------------2------------------------|
|-------------2-----------------------2------------|
|--------------------------------------------------|
|--------------------------------------------------|

 |      |      |      |
|-------------------------2------------------------|
|-------------2-----------------------2------------|
|--------------------------------------------------|
|--------------------------------------------------|




m/

Find guitar tabs and chords

A B C D E F G H I J K L M N O P Q R S T U V W X Y Z #