Driftin by The Shadows

Driftin bass tab by The Shadows

Bass tabs

s/shadows/Driftin'.btab

Basstab by Jan Bjorklund, Finland
You are welcome to request for basstabs!
Bienvenidos a pedirme transcripciones para el bajo!
Fingering and positions as suggested by TablEdit.

TablEdited by Jan Bjorklund
Tuning : E A D G 	Time Signature: 4/4

 |    |    |    |    |    |    |    |
|--------------------------------|--------------------------------|
|--------------------------------|--------------------------------|
|1---------------1---------------|1-------3-------4-------3-------|
|--------1---------------1---4---|--------------------------------|

 |    |    |    |    |    |    |    |
|--------------------------------|--------0-------1---------------|
|3---------------3-----------1---|3-------------------------------|
|--------3---------------3-------|--------------------------------|
|--------------------------------|--------------------------------|

 |    |    |    |    |    |    |    |
|--------------------------------|--------------------------------|
|--------0-------1-------0-------|--------------------------------|
|3---------------------------3---|1-------3-------4-------3---1---|
|--------------------------------|--------------------------------|

 |    |    |    |    |    |    |    |
|--------------------------------|--------------------------------|
|3---------------3---------------|--------------------------------|
|--------3---------------3---1---|----3---3---3-------3---3---3---|
|--------------------------------|--------------------------------|

 |    |    |    |    |    |    |    |
|--------------------------------|--------------------------------|
|3---------------3-----------1---|3---------------3-----------1---|
|--------3---------------3-------|--------3---------------3-------|
|--------------------------------|--------------------------------|

 |    |    |    |    |    |    |    |
|--------------------------------|--------------------------------|
|3---------------3-----------1---|3---------------3---------------|
|--------3---------------3-------|--------3---------------3-------|
|--------------------------------|----------------------------4---|

 |    |    |    |    |    |    |    |
|--------------------------------|--------------------------------|
|--------------------------------|--------------------------------|
|1---------------1---------------|1-------3-------4-------3-------|
|--------1---------------1-------|--------------------------------|

 |    |    |    |    |    |    |    |
|--------------------------------|--------------------------------|
|3---------------3---------------|3---------------3-----------3---|
|--------3---------------3---3---|--------3---------------3-------|
|--------------------------------|--------------------------------|

 |    |    |    |    |    |    |    |
|--------------------------------|--------------------------------|
|--------------------------------|--------------------------------|
|3-------3-------3-------3---3---|1-------1-------1-------1-------|
|--------------------------------|----------------------------4---|

 |    |    |    |    |    |    |    |
|--------------------------------|--------------------------------|
|3---------------3-----------3---|--------------------------------|
|--------3---------------3-------|----3---3---3-------3---3---3---|
|--------------------------------|--------------------------------|

 |    |    |    |    |    |    |    |
|--------------------------------|--------------------------------|
|3---------------3-----------1---|3---------------3-----------1---|
|--------3---------------3-------|--------3---------------3-------|
|--------------------------------|--------------------------------|

 |    |    |    |    |    |    |    |
|--------------------------------|--------0-------1---------------|
|3---------------3-----------1---|3-------------------------------|
|--------3---------------3-------|------------------------3-------|
|--------------------------------|--------------------------------|

 |    |    |    |    |    |    |    |
|--------------------------------|--------------------------------|
|--------------------------------|--------------------------------|
|1---------------1---------------|1---------------1---------------|
|--------1---------------1---4---|--------1---------------1-------|

 |    |    |    |    |    |    |    |
|--------------------------------|--------------------------------|
|3---------------3-----------1---|3---------------3-----------3---|
|--------3---------------3-------|--------3---------------3-------|
|--------------------------------|--------------------------------|

 |    |    |    |    |    |    |    |
|--------------------------------|--------------------------------|
|--------------------------------|--------------------------------|
|3-------3-------3-------3-------|1-------1-------1-----1-1-------|
|--------------------------------|----------------------------4---|

 |    |    |    |    |    |    |    |
|--------------------------------|--------------------------------|
|3---------------3---------------|--------------------------------|
|--------3---------------3---3---|----3---3---3-------3---3---3---|
|--------------------------------|--------------------------------|

 |    |    |    |    |    |    |    |
|--------------------------------|--------------------------------|
|3---3---1---1---3---------------|3---3---1---1---3---------------|
|--------------------------------|--------------------------------|
|--------------------------------|--------------------------------|

 |    |    |    |    |    |    |    |
|--------------------------------|--------------------------------|
|3---3---1---1---3---3---1---1---|3---3---1---1---3---1-----------|
|--------------------------------|------------------------4---3---|
|--------------------------------|--------------------------------|

 |    |    |    |    |    |    |    |
|--------------------------------|--------------------------------|
|--------------------------------|--------------------------------|
|1---------------1---------------|1-------3-------4-------3-------|
|--------1---------------1---4---|--------------------------------|

 |    |    |    |    |    |    |    |
|--------------------------------|--------0-------1-------0-------|
|3---------------3---------------|3-------------------------------|
|--------3---------------3-------|--------------------------------|
|--------------------------------|--------------------------------|

 |    |    |    |    |    |    |    |
|--------------------------------|--------------------------------|
|--------------------------------|--------------------------------|
|3-------3-------3-------3---3---|1-------1-------1---1---1-------|
|--------------------------------|--------------------------------|

 |    |    |    |    |    |    |    |
|--------------------------------|--------------------------------|
|3---3-----------3---3-----------|--------------------------------|
|--------3---3-----------3---3---|----3---3---3-------3---3---3---|
|--------------------------------|--------------------------------|

 |    |    |    |    |    |    |    |
|--------------------------------|--------------------------------|
|3---------------3---------------|3---------------3---------------|
|--------3---------------3-------|--------3-----------3---3---3---|
|--------------------------------|--------------------------------|

 |    |    |    |    |    |    |    |
|--------------------------------|--------------------3-----5-----|
|3---------------3---------------|3---5-----5-----6---------------|
|--------3---------------3-------|--------------------------------|
|--------------------------------|--------------------------------|

 |    |    |    |    |    |    |    |
|3-------------------------------|--------------------------------|
|--------3-----------------------|--------------------------------|
|----------------1---------------|1-------3-------4---3---1---3---|
|------------------------1---1---|--------------------------------|

 |    |    |    |    |    |    |    |
|--------------------------------|--------------------------------|
|3---------------3---------------|3---------------3-------3---1---|
|--------3---3-----------3---3---|--------3---3-------3-----------|
|--------------------------------|--------------------------------|

 |    |    |    |    |    |    |    |
|--------------------------------|--------------------------------|
|--------------------------------|--------------------------------|
|3-------3---3-------3---3---3---|1---1---1---1-------1---1-------|
|--------------------------------|----------------------------4---|

 |    |    |    |    |    |    |    |
|--------------------------------|--------------------------------|
|3---------------3---3-------3---|--------------------------------|
|--------3---3-----------3-------|----3---3---3-------3---3-------|
|--------------------------------|--------------------------------|

 |    |    |    |    |    |    |    |
|--------------------------------|--------------------------------|
|3---3---1---1---3---------------|3---3---1---1---3---------------|
|--------------------------------|--------------------------------|
|--------------------------------|--------------------------------|

 |    |    |    |    |    |    |    |
|--------------------------------|--------------------------------|
|3---3---1---1---3---3---1---1---|3---3---1---1---3---1-----------|
|--------------------------------|------------------------4---3---|
|--------------------------------|--------------------------------|

 |    |    |    |    |    |    |    |
|--------------------------------|--------------------------------|
|--------------------------------|------------------------3---1---|
|1-------2-------3-------2-------|1---------------1---------------|
|--------------------------------|--------1---4-------------------|

 |    |    |    |    |    |    |    |
|--------------------------------|--------------------------------|
|3---------------3---------------|3---------------3---3-----------|
|--------3---------------3-------|--------3---------------3-------|
|--------------------------------|--------------------------------|

 |    |    |    |    |    |    |    |
|--------------------------------|--------------------------------|
|--------------------------------|--------3---------------3---1---|
|3---------------3-----------3---|1---------------1---1-----------|
|--------3---------------3-------|--------------------------------|

 |    |    |    |    |    |    |    |
|--------------------------------|--------------------------------|
|3-------1-------3-------1---3---|--------------------------------|
|--------------------------------|----3---3---3-------3---3---3---|
|--------------------------------|--------------------------------|

 |    |    |    |    |    |    |    |
|--------------------------------|--------------------------------|
|3---------------3-----------1---|3---------------3-----------1---|
|--------3---------------3-------|--------3---------------3-------|
|--------------------------------|--------------------------------|

 |    |    |    |    |    |    |    |
|--------------------------------|--------------------------------|
|3---------------3-----------1---|3---------------3---------------|
|--------3---------------3-------|--------3---------------3-------|
|--------------------------------|----------------------------4---|

 |    |    |    |    |    |    |    |
|--------------------------------|--------------------------------|
|--------------------------------|--------------------------------|
|1---------------1---------------|1-------3-------4-------3-------|
|--------1---------------1-------|--------------------------------|

 |    |    |    |    |    |    |    |
|--------------------------------|--------------------------------|
|3---------------3---------------|3---------------3-----------3---|
|--------3---------------3---3---|--------3---------------3-------|
|--------------------------------|--------------------------------|

 |    |    |    |    |    |    |    |
|--------------------------------|--------------------------------|
|--------------------------------|--------------------------------|
|3---3-------3-------3---3---3---|1---1-------1-------1---1---1---|
|--------------------------------|--------------------------------|

 |    |    |    |    |    |    |    |
|--------------------------------|--------------------------------|
|3-------------------------------|--------------------------------|
|--------------------------------|--------------------------------|
|--------------------------------|--------------------------------|

 |    |    |    |    |    |    |    |
|--------------------------------|--------------------------------|
|--------------------------------|--------------------------------|
|--------------------------------|--------------------------------|
|1-------------------------------|1-------------------------------|




m/

............................................................

Find guitar tabs and chords

A B C D E F G H I J K L M N O P Q R S T U V W X Y Z #