Don't Cry For Me Argentina by The Shadows

Don't Cry For Me Argentina bass tab by The Shadows

Bass tabs

shadows/don't_cry_for_me_argentina.btab

Basstab by Jan Bjorklund, Finland;
jani_bjorklund@yahoo.se
You are welcome to request for basstabs!
Bienvenidos a pedirme transcripciones para el bajo!
Be sure to use a monospaced font!

TablEdited by Jan Bjorklund for Terry
Tuning : E A D G 	Time Signature: 4/4

 tempo 86|    |    |    |    |    |    |
|--------------------------------|--------------------------------|
|--------------------------------|--------------------------------|
|6-----------------------6-------|6-----------------------6-------|
|--------------------------------|--------------------------------|

 |    |    |    |    |    |    |    |
|--------------------------------|--------------------------------|
|--------------------------------|--------------------------------|
|6-----------------------6-------|6-----------------------6-------|
|--------------------------------|--------------------------------|

 |    |    |    |    |    |    |    |
|--------------------------------|--------------------------------|
|--------------------------------|--------------------------------|
|6-----------------------6-------|6-----------------------6-------|
|--------------------------------|--------------------------------|

 |    |    |    |    |    |    |    |
|5-----------------------5-------|5-----------------------5---3---|
|--------------------------------|--------------------------------|
|--------------------------------|--------------------------------|
|--------------------------------|--------------------------------|

 |    |    |    |    |    |    |    |
|--------------------------------|--------------------------------|
|--------------------------------|--------------------------------|
|6-----------------------6-------|6-----------------------6-------|
|--------------------------------|--------------------------------|

 |    |    |    |    |    |    |    |
|--------------------------------|--------------------------------|
|--------------------------------|--------------------------------|
|6-----------------------6-------|6-----------------------6-------|
|--------------------------------|--------------------------------|

 |    |    |    |    |    |    |    |
|5-----------------------5-------|5-----------------------5-------|
|--------------------------------|--------------------------------|
|--------------------------------|--------------------------------|
|--------------------------------|--------------------------------|

 |    |    |    |    |    |    |    |
|--------------------------------|--------------------------------|
|--------------------------------|--------------------------------|
|8-----------------------8-------|8-----------------------8-------|
|--------------------------------|--------------------------------|

 |    |    |    |    |    |    |    |
|--------------------------------|--------------------------------|
|--------------------------------|--------------------------------|
|--------------------------------|8-----------------------8-------|
|6-----------------------6-------|--------------------------------|

 |    |    |    |    |    |    |    |
|--------------------------------|--------------------------------|
|--------------------------------|--------------------------------|
|--------------------------------|6-----------------------6-------|
|6-----------------------6-------|--------------------------------|

 |    |    |    |    |    |    |    |
|--------------------------------|--------------------------------|
|--------------------------------|--------------------------------|
|6-----------------------6-------|6-----------------------6-------|
|--------------------------------|--------------------------------|

 |    |    |    |    |    |    |    |
|--------------------------------|--------------------------------|
|--------------------------------|--------------------------------|
|6-----------------------6-------|6-----------------------6-------|
|--------------------------------|--------------------------------|

 |    |    |    |    |    |    |    |
|--------------------------------|--------------------------------|
|--------------------------------|--------------------------------|
|6-----------------------6-------|6-----------------------6-------|
|--------------------------------|--------------------------------|

 |    |    |    |    |    |    |    |
|--------------------------------|5-----------------------5-------|
|--------------------------------|--------------------------------|
|6-------------------------------|--------------------------------|
|--------------------------------|--------------------------------|

 |    |    |    |    |    |    |    |
|5-----------------------5-------|--------------------------------|
|--------------------------------|--------------------------------|
|--------------------------------|8-----------------------8-------|
|--------------------------------|--------------------------------|

 |    |    |    |    |    |    |    |
|--------------------------------|--------------------------------|
|--------------------------------|--------------------------------|
|8-----------------------8-------|--------------------------------|
|--------------------------------|6-----------------------6-------|

 |    |    |    |    |    |    |    |
|--------------------------------|--------------------------------|
|--------------------------------|--------------------------------|
|--------------------------------|--------------------------------|
|8-----------------------8-------|6-------------------------------|

 |    |    |    |    |    |    |    |
|--------------------------------|--------------------------------|
|--------------------------------|--------------------------------|
|6---------------6-------6-------|6---------------6---------------|
|----------------------------6---|----------------------------6---|

 |    |    |    |    |    |    |    |
|--------------------------------|--------------------------------|
|--------------------------------|--------------------------------|
|6-----------6---6-------6-------|6-----------6---6-------6-------|
|----------------------------6---|----------------------------8---|

 |    |    |    |    |    |    |    |
|--------------------------------|--------------------------------|
|----------------8---------------|----------------10--------------|
|------------8-----------8-------|------------10----------10------|
|6---------------------------6---|8---------------------------8---|

 |    |    |    |    |    |    |    |
|------------8h108-------8-------|--------------------------------|
|--------------------8h10----108-|--------------------------------|
|6-------------------------------|--------------------------------|
|--------------------------------|4---4-------4---4-------4-------|

 |    |    |    |    |    |    |    |
|--------------------------------|--------------------------------|
|--------------------------------|--------------------------------|
|----------------------------3---|6-----------------------6---6---|
|4---4-------4---4-------4-------|--------------------------------|

 |    |    |    |    |    |    |    |
|--------------------------------|--------------------------------|
|--------------------------------|--------------------------------|
|6-----------------------6-------|6-----------------------6---6---|
|--------------------------------|--------------------------------|

 |    |    |    |    |    |    |    |
|--------------------------------|--------------------------------|
|--------------------------------|--------------------------------|
|6-------------------------------|6-----------------------6-------|
|--------------------------------|--------------------------------|

 |    |    |    |    |    |    |    |
|--------------------------------|--------------------------------|
|--------------------------------|--------------------------------|
|6-----------------------6-------|6-----------------------6-------|
|--------------------------------|--------------------------------|

 |    |    |    |    |    |    |    |
|--------------------------------|--------------------------------|
|--------------------------------|--------------------------------|
|6-------------------------------|3-----------3---3-------3-------|
|--------------------------------|----------------------------3---|

 |    |    |    |    |    |    |    |
|--------------------------------|--------------------------------|
|----------------------------0h1-|----------------3---------------|
|3-----------3---3---------------|--------------------------------|
|--------------------------------|1-----------1---------------1---|

 |    |    |    |    |    |    |    |
|--------------------------------|--------------------------------|
|1-----------1---1-----------1---|0-----------0---0-----------0h1-|
|--------------------------------|--------------------------------|
|--------------------------------|--------------------------------|

 |    |    |    |    |    |    |    |
|--------------------------------|--------------------------------|
|--------------------------------|--------------------------------|
|8-----------8---8-------8/--6---|--------------------------------|
|--------------------------------|6-------------------------------|

 |    |    |    |    |    |    |    |
|----------------12------12------|----------------12--------------|
|--------------------------------|--------------------------------|
|------------13------------------|------------13------------------|
|11------------------------------|11------------------------------|

 |    |    |    |    |    |    |    |
|----------------12--------------|----------------12------12------|
|--------------------------------|--------------------------------|
|------------13------------------|------------13------------------|
|11------------------------------|11------------------------------|

 |    |    |    |    |    |    |    |
|----------------7---------------|----------------8---------------|
|------------8-------------------|--------------------------------|
|------------------------8-------|------------10------------------|
|6---------------------------6---|8-----------------------8---6---|

 |    |    |    |    |    |    |    |
|------------8h108-------8-------|--------------------------------|
|--------------------8h10----108-|--------------------------------|
|6-------------------------------|6---6-------6---6-------6-------|
|--------------------------------|--------------------------------|

 |    |    |    |    |    |    |    |
|--------------------------------|--------------------------------|
|--------------------------------|--------------------------------|
|6---6-------6---6---------------|6-------------------------------|
|--------------------------------|--------------------------------|

 |    |    |    |
|--------------------------------|
|--------------------------------|
|6-------------------------------|
|--------------------------------|



m/

Find guitar tabs and chords

A B C D E F G H I J K L M N O P Q R S T U V W X Y Z #