Deep Purple by The Shadows

Deep Purple bass tab by The Shadows

Bass tabs

s/shadows/Deep_purple.btab

Basstab by Jan Bjorklund, Finland
You are welcome to request for basstabs!
Bienvenidos a pedirme transcripciones para el bajo!
Fingering and positions as suggested by TablEdit.

TablEdited by Jan Bjorklund
Tuning : E A D G 	Time Signature: 4/4

 |    |    |    |    |    |    |    |
|--------------------------------|0-------------------------------|
|3---------------0---------------|--------------------------------|
|--------------------------------|----------------3---------------|
|--------------------------------|--------------------------------|

 |    |    |    |    |    |    |    |
|--------------------------------|0-------------------------------|
|3---------------0---------------|--------------------------------|
|--------------------------------|----------------3---------------|
|--------------------------------|--------------------------------|

 |    |    |    |    |    |    |    |
|--------------------------------|--------------------------------|
|3---------------3---3-----------|4---------------4---4-----------|
|--------------------------------|--------------------------------|
|--------------------------------|--------------------------------|

 |    |    |    |    |    |    |    |
|0---------------0---0-----------|--------------------------------|
|--------------------------------|--------------------------------|
|--------------------------------|3---------------3---3-------3---|
|--------------------------------|--------------------------------|

 |    |    |    |    |    |    |    |
|--------------------------------|--------------------------------|
|3-----------3---3-------3-------|1---------------1---1-----------|
|--------------------------------|--------------------------------|
|--------------------------------|--------------------------------|

 |    |    |    |    |    |    |    |
|--------------------------------|--------------------------------|
|0-----------0---0---------------|0---------------0---0-------0---|
|--------------------------------|--------------------------------|
|--------------------------------|--------------------------------|

 |    |    |    |    |    |    |    |
|0-----------0---0-------0-------|--------------------------------|
|--------------------------------|--------------------------------|
|--------------------------------|1-----------1---1---------------|
|--------------------------------|--------------------------------|

 |    |    |    |    |    |    |    |
|--------------------------------|1---------------1---1-----------|
|3-----------3---3-----------3---|--------------------------------|
|--------------------------------|--------------------------------|
|--------------------------------|--------------------------------|

 |    |    |    |    |    |    |    |
|0-----------0-------------------|--------------------------------|
|----------------0---------------|--------------------------------|
|------------------------4-------|3-----------3---3---3-----------|
|--------------------------------|--------------------------------|

 |    |    |    |    |    |    |    |
|--------------------------------|0-----------0-------------------|
|3-----------3---0---------------|--------------------------------|
|--------------------------------|----------------3-------3-------|
|--------------------------------|--------------------------------|

 |    |    |    |    |    |    |    |
|--------------------------------|--------------------------------|
|3-----------3---3---3-----------|4-----------4---4---------------|
|--------------------------------|--------------------------------|
|--------------------------------|--------------------------------|

 |    |    |    |    |    |    |    |
|0-----------0---0-----------0---|--------------------------------|
|--------------------------------|--------------------------------|
|--------------------------------|3-----------3---3---------------|
|--------------------------------|--------------------------------|

 |    |    |    |    |    |    |    |
|--------------------------------|--------------------------------|
|3---------------3---3-----------|1---------------1---1-----------|
|--------------------------------|--------------------------------|
|--------------------------------|--------------------------------|

 |    |    |    |    |    |    |    |
|--------------------------------|--------------------------------|
|0---------------0---0-----------|0---------------0---0-------0---|
|--------------------------------|--------------------------------|
|--------------------------------|--------------------------------|

 |    |    |    |    |    |    |    |
|0---------------0---0-----------|--------------------------------|
|--------------------------------|--------------------------------|
|--------------------------------|1---1-----------1---1-----------|
|--------------------------------|--------------------------------|

 |    |    |    |    |    |    |    |
|--------------------------------|1---------------1---1-----------|
|3-----------3---3-----------3---|--------------------------------|
|--------------------------------|--------------------------------|
|--------------------------------|--------------------------------|

 |    |    |    |    |    |    |    |
|0---------------0---0-----------|--------------------------------|
|--------------------------------|--------------------------------|
|--------------------------------|3-----------3---3---3-----------|
|--------------------------------|--------------------------------|

 |    |    |    |    |    |    |    |
|--------------------------------|0-------------------------------|
|3---------------0---------------|--------------------------------|
|--------------------------------|----------------3---------------|
|--------------------------------|--------------------------------|

 |    |    |    |    |    |    |    |
|0-------------------------------|2-------2-----------------------|
|----------------2---------------|--------------------------------|
|--------------------------------|--------------------------------|
|--------------------------------|--------------------------------|

 |    |    |    |    |    |    |    |
|0---------------0---0-----------|1---------------1---1-----------|
|--------------------------------|--------------------------------|
|--------------------------------|--------------------------------|
|--------------------------------|--------------------------------|

 |    |    |    |    |    |    |    |
|2---------------2---2-----------|--------------------------------|
|--------------------------------|0---------------0---0-------0---|
|--------------------------------|--------------------------------|
|--------------------------------|--------------------------------|

 |    |    |    |    |    |    |    |
|0-----------0---0-------0-------|--------------------------------|
|--------------------------------|3---------------3---3-----------|
|--------------------------------|--------------------------------|
|--------------------------------|--------------------------------|

 |    |    |    |    |    |    |    |
|--------------------------------|--------------------------------|
|2-----------2---2---------------|2---------------2---2-------2---|
|--------------------------------|--------------------------------|
|--------------------------------|--------------------------------|

 |    |    |    |    |    |    |    |
|2-----------2---2-------2-------|--------------------------------|
|--------------------------------|--------------------------------|
|--------------------------------|3-----------3---3---------------|
|--------------------------------|--------------------------------|

 |    |    |    |    |    |    |    |
|0-----------0---0-----------0---|3---------------3---3-----------|
|--------------------------------|--------------------------------|
|--------------------------------|--------------------------------|
|--------------------------------|--------------------------------|

 |    |    |    |    |    |    |    |
|2-----------2-------------------|--------------------------------|
|----------------2-------1-------|0-----------0---0---0-----------|
|--------------------------------|--------------------------------|
|--------------------------------|--------------------------------|

 |    |    |    |    |    |    |    |
|0-----------0-------------------|2-----------2-------------------|
|----------------2---------------|----------------0-------0-------|
|--------------------------------|--------------------------------|
|--------------------------------|--------------------------------|

 |    |    |    |    |    |    |    |
|0-----------0---0---0-----------|1-----------1---1---------------|
|--------------------------------|--------------------------------|
|--------------------------------|--------------------------------|
|--------------------------------|--------------------------------|

 |    |    |    |    |    |    |    |
|2-----------2---2-----------2---|--------------------------------|
|--------------------------------|0-----------0---0---------------|
|--------------------------------|--------------------------------|
|--------------------------------|--------------------------------|

 |    |    |    |    |    |    |    |
|0---------------0---0-----------|--------------------------------|
|--------------------------------|3---------------3---3-----------|
|--------------------------------|--------------------------------|
|--------------------------------|--------------------------------|

 |    |    |    |    |    |    |    |
|--------------------------------|--------------------------------|
|2---------------2---2-----------|2---------------2---2-------2---|
|--------------------------------|--------------------------------|
|--------------------------------|--------------------------------|

 |    |    |    |    |    |    |    |
|2---------------2---2-----------|--------------------------------|
|--------------------------------|--------------------------------|
|--------------------------------|3---3-----------3---3-----------|
|--------------------------------|--------------------------------|

 |    |    |    |    |    |    |    |
|0-----------0---0-----------0---|3---------------3---3-----------|
|--------------------------------|--------------------------------|
|--------------------------------|--------------------------------|
|--------------------------------|--------------------------------|

 |    |    |    |    |    |    |    |
|2---------------2---2-----------|--------------------------------|
|--------------------------------|0-----------0---0---0-----------|
|--------------------------------|--------------------------------|
|--------------------------------|--------------------------------|

 |    |    |    |    |    |    |    |
|0-------------------------------|--------------------------------|
|----------------4---3-------2---|----------------2-------2-------|
|--------------------------------|--------------------------------|
|--------------------------------|--------------------------------|

 |    |    |    |    |    |    |    |
|2-----------2---2---------------|--------------------------------|
|--------------------------------|--------------------------------|
|--------------------------------|3-----------3---3---3-----------|
|--------------------------------|--------------------------------|

 |    |    |    |    |    |    |    |
|0-----------0---0---------------|3-------0-----------------------|
|--------------------------------|----------------2---------------|
|--------------------------------|------------------------4-------|
|--------------------------------|--------------------------------|

 |    |    |    |    |    |    |    |
|2-----------2---2---------------|--------------------------------|
|--------------------------------|0-----------0---2-------0-------|
|--------------------------------|--------------------------------|
|--------------------------------|--------------------------------|

 |    |    |    |    |    |    |    |
|0-----------0-------------------|2---2---------------------------|
|----------------2-----------2---|------------0-----------0-------|
|--------------------------------|--------------------------------|
|--------------------------------|--------------------------------|

 |    |    |    |    |    |    |    |
|0-----------0-------------------|2---2---------------------------|
|----------------2-----------2---|------------0-----------0-------|
|--------------------------------|--------------------------------|
|--------------------------------|--------------------------------|

 |    |    |    |    |    |    |    |
|0-------------------------------|--------------------------------|
|--------------------------------|--------------------------------|
|--------------------------------|--------------------------------|
|--------------------------------|--------------------------------|



m/

............................................................

Find guitar tabs and chords

A B C D E F G H I J K L M N O P Q R S T U V W X Y Z #