Deans Theme by The Shadows

Deans Theme bass tab by The Shadows

Bass tabs

s/shadows/Dean's_theme.btab

Basstab by Jan Bjorklund, Finland
You are welcome to request for basstabs!
Bienvenidos a pedirme transcripciones para el bajo!
Fingering and positions as suggested by TablEdit.

TablEdited by Jan Bjorklund
Tuning : E A D G 	Time Signature: 4/4

 |    |    |    |    |    |    |    |
|--------------------------------|--------------------------------|
|--------------------------------|--------------------------------|
|--------------------------------|--------------------------------|
|3---------------3-------------3-|3---------------3-------------3-|

 |    |    |    |    |    |    |    |
|--------------------------------|--------------------------------|
|--------------------------------|------0-------------------------|
|--------------------------------|--------3-------2-------0-------|
|3---------------3---------------|------------------------------4-|

 |    |    |    |    |    |    |    |
|--------------0-----------------|--------------------------------|
|----------------3-------------3-|2-------------2-1-------------1-|
|--------------------------------|--------------------------------|
|3-------------------------------|--------------------------------|

 |    |    |    |    |    |    |    |
|--------------------------------|--------------------------------|
|0-------------0-----------------|--------------------------------|
|----------------3---------------|2-------1-------0---------------|
|--------------------------------|------------------------4-------|

 |    |    |    |    |    |    |    |
|--------------0-----------------|------------------------------4-|
|----------------3-------------3-|2---------------1-------------2-|
|--------------------------------|--------------------------------|
|3-------------------------------|--------------------------------|

 |    |    |    |    |    |    |    |
|9-------------------------------|------------0-------------------|
|--------------------------------|--------0---------------4-------|
|----7---------------------------|1-------------------------------|
|--------------------------------|--------------------------------|

 |    |    |    |    |    |    |    |
|--------------0-----------------|--------------------------------|
|----------------3-------------3-|2-------------2-1-------------1-|
|--------------------------------|--------------------------------|
|3-------------------------------|--------------------------------|

 |    |    |    |    |    |    |    |
|--------------------------------|--------------------------------|
|0-------------0-----------------|--------------------------------|
|----------------3---------------|2-------1-------0---------------|
|--------------------------------|------------------------4-------|

 |    |    |    |    |    |    |    |
|--------------0-----------------|------------------------------4-|
|----------------3-------------3-|2---------------1-------------2-|
|--------------------------------|--------------------------------|
|3-------------------------------|--------------------------------|

 |    |    |    |    |    |    |    |
|9-------------------------------|------------0-------------------|
|--------------------------------|--------0-------------0---------|
|----7---------------------------|1-------------------------------|
|--------------------------------|------------------------3-------|

 |    |    |    |    |    |    |    |
|--------------------------------|--------------------------------|
|2-------------------------------|2-----------2-------------------|
|----------------2---------------|----------------------2-1-------|
|--------------------------------|--------------------------------|

 |    |    |    |    |    |    |    |
|--------------------------------|--------------------------------|
|----------------2---------------|------------2-------1-----------|
|0-------------0-----------------|0-------------------------------|
|--------------------------------|--------------------------------|

 |    |    |    |    |    |    |    |
|--------------------------------|--------------------------------|
|0-------------------------------|0-------------------0-----------|
|----------------0---------------|------------0-------------------|
|--------------------------------|--------------------------------|

 |    |    |    |    |    |    |    |
|--------------------------------|--------------------------------|
|--------------------------------|--------------------------------|
|--------------------------------|--------------------------------|
|3-------------------------------|--------------------------------|

 |    |    |    |    |    |    |    |
|--------------------------------|--------------------------------|
|2-------------------------------|2-----------2-------------------|
|----------------2---------------|----------------------2-1-------|
|--------------------------------|--------------------------------|

 |    |    |    |    |    |    |    |
|--------------------------------|--------------------------------|
|----------------2---------------|------------2-------1-----------|
|0-------------0-----------------|0-------------------------------|
|--------------------------------|--------------------------------|

 |    |    |    |    |    |    |    |
|--------------------------------|--------------------------------|
|0-------------------------------|0-------------------0-----------|
|----------------0---------------|------------0-------------------|
|--------------------------------|--------------------------------|

 |    |    |    |    |    |    |    |
|0-------------------------------|--------------------------------|
|--------------------------------|--------------------------------|
|--------------------------------|--------------------------------|
|----3---------------------------|--------------------------------|

 |    |    |    |    |    |    |    |
|--------------0-----------------|--------------------------------|
|----------------3-------------3-|2-------------2-1-------------1-|
|--------------------------------|--------------------------------|
|3-------------------------------|--------------------------------|

 |    |    |    |    |    |    |    |
|--------------------------------|--------------------------------|
|0-------------0-----------------|--------------------------------|
|----------------3---------------|2-------1-------0---------------|
|--------------------------------|------------------------4-------|

 |    |    |    |    |    |    |    |
|--------------0-----------------|------------------------------4-|
|----------------3-------------3-|2---------------1-------------2-|
|--------------------------------|--------------------------------|
|3-------------------------------|--------------------------------|

 |    |    |    |    |    |    |    |
|9-------------------------------|------------0-------------------|
|--------------------------------|--------0---------------------0-|
|----7---------------------------|1-------------------------------|
|--------------------------------|--------------------------------|

 |    |    |    |    |    |    |    |
|0-------------------------------|--------------------------------|
|--------------------------------|1-----------1-------0-------0---|
|--------------------------------|--------------------------------|
|--------------------------------|--------------------------------|

 |    |    |    |    |    |    |    |
|0-------------------------------|--------------------------------|
|--------------------------------|1-----------1-------0-------0---|
|--------------------------------|--------------------------------|
|--------------------------------|--------------------------------|

 |    |    |    |    |    |    |    |
|0-------------------------------|--------------------------------|
|--------------------------------|1-----------1-------0-------0---|
|--------------------------------|--------------------------------|
|--------------------------------|--------------------------------|

 |    |    |    |    |    |    |    |
|0-------------------------------|--------------------------------|
|--------------------------------|--------------------------------|
|--------------------------------|--------------------------------|
|--------------------------------|--------------------------------|

 |    |    |    |    |    |    |    |
|--------------------------------|--------------------------------|
|2-------------------------------|2-----------2-------------------|
|----------------2---------------|----------------------2-1-------|
|--------------------------------|--------------------------------|

 |    |    |    |    |    |    |    |
|--------------------------------|--------------------------------|
|----------------2---------------|------------2-------1-----------|
|0-------------0-----------------|0-------------------------------|
|--------------------------------|--------------------------------|

 |    |    |    |    |    |    |    |
|--------------------------------|--------------------------------|
|0-------------------------------|0-------------------0-----------|
|----------------0---------------|------------0-------------------|
|--------------------------------|--------------------------------|

 |    |    |    |    |    |    |    |
|0-------------------------------|0-------------------------------|
|----------------------0-2-----0-|--------------------------------|
|--------------1-2---------------|------1-2-----------------------|
|--------3-----------------------|----------------3---------------|

 |    |    |    |    |    |    |    |
|--------------------------------|--------------------------------|
|2-------------------------------|2-----------2-------------------|
|----------------2---------------|----------------------2-1-------|
|--------------------------------|--------------------------------|

 |    |    |    |    |    |    |    |
|--------------------------------|--------------------------------|
|----------------2---------------|------------2-------1-----------|
|0-------------0-----------------|0-------------------------------|
|--------------------------------|--------------------------------|

 |    |    |    |    |    |    |    |
|--------------------------------|--------------------------------|
|0-------------------------------|0-------------------0-----------|
|----------------0---------------|------------0-------------------|
|--------------------------------|--------------------------------|

 |    |    |    |    |    |    |    |
|--------12------9---------------|9-------------------------------|
|----------------------129-----12|------8-9-----------------------|
|10------------------------------|----------------10------7-----9-|
|--------------------------------|----------------------10--------|

 |    |    |    |    |    |    |    |
|0-------------0-----------------|--------------------------------|
|----------------3-------------3-|2-------------2-1-------------1-|
|--------------------------------|--------------------------------|
|--------------------------------|--------------------------------|

 |    |    |    |    |    |    |    |
|--------------------------------|--------------------------------|
|0-------------0-----------------|--------------------------------|
|--------------------------------|2-------1-------0---------------|
|--------------------------------|------------------------4-------|

 |    |    |    |    |    |    |    |
|--------------0-----------------|------------------------------8-|
|----------------3-------------3-|2-------------2-1---------------|
|--------------------------------|--------------------------------|
|3-------------------------------|--------------------------------|

 |    |    |    |    |    |    |    |
|9-------------------------------|------------0-------------------|
|--------------------------------|--------0-------------0-4-------|
|----7---------------------------|0-----4-------------------------|
|--------------------------------|--------------------------------|

 |    |    |    |    |    |    |    |
|--------------0-----------------|--------------------------------|
|----------------3-------------3-|2-------------2-1-------------1-|
|--------------------------------|--------------------------------|
|3-------------------------------|--------------------------------|

 |    |    |    |    |    |    |    |
|--------------------------------|--------------------------------|
|0-------------0-----------------|--------------------------------|
|--------------------------------|2-------1-------0---------------|
|--------------------------------|------------------------4-------|

 |    |    |    |    |    |    |    |
|--------------0-----------------|------------------------------4-|
|----------------3-------------3-|2-------------2-1-------------2-|
|--------------------------------|--------------------------------|
|3-------------------------------|--------------------------------|

 |    |    |    |    |    |    |    |
|9-------------------------------|------------0-----------------0-|
|--------------------------------|--------0-----------------------|
|----7---------------------------|0-------------------------------|
|--------------------------------|--------------------------------|

 |    |    |    |    |    |    |    |
|------------------------------0-|------------------------------0-|
|--------------------------------|--------------------------------|
|--------------------------------|--------------------------------|
|3-------------------------------|3-------------------------------|

 |    |    |    |    |    |    |    |
|--------------------------------|------------0-------------------|
|--------------------------------|--------0-----------------------|
|--------------------------------|------4-------------------------|
|3-------------------------------|--------------------------------|


m/

............................................................

Find guitar tabs and chords

A B C D E F G H I J K L M N O P Q R S T U V W X Y Z #