Cricket Bat Boogie by The Shadows

Cricket Bat Boogie bass tab by The Shadows

Bass tabs

s/shadows/Cricket_bat_boogie.btab

Basstab by Jan Bjorklund, Finland
You are welcome to request for basstabs!
Bienvenidos a pedirme transcripciones para el bajo!
Fingering and positions as suggested by TablEdit.

TablEdited by Jan Bjorklund
Tuning : E A D G 	Time Signature: 4/4

 |    |    |    |    |    |    |    |
|--------------------------------|--------------------------------|
|--------------------------------|--------------------------------|
|----------------0-------1-------|2-------------------------------|
|2-------4-----------------------|----------------------------0---|

 |    |    |    |    |    |    |    |
|--------------------------------|--------------------------------|
|--------------------------------|--------------------------------|
|--------------------------------|--------------------------------|
|--------------------------------|----------------------------0---|

 |    |    |    |    |    |    |    |
|--------------------------------|--------------------------------|
|--------------------------------|--------------------------------|
|--------------------------------|----------------------------0---|
|--------------------------------|--------------------------------|

 |    |    |    |    |    |    |    |
|--------------------------------|--------------------------------|
|--------------------------------|--------------------------------|
|--------------------------------|--------------------------------|
|--------------------------------|----------------------------0---|

 |    |    |    |    |    |    |    |
|--------------------------------|--------------------------------|
|--------------------------------|--------------------------------|
|--------------------------------|----------------------------2---|
|--------------------------------|--------------------------------|

 |    |    |    |    |    |    |    |
|--------------------------------|--------------------------------|
|--------------------------------|--------------------------------|
|--------------------------------|--------------------------------|
|--------------------------------|----------------------------0---|

 |    |    |    |    |    |    |    |
|--------------------------------|--------------------------------|
|--------------------------------|--------------------------------|
|--------------------------------|--------------------------------|
|--------------------------------|--------0---------------0-------|

 |    |    |    |    |    |    |    |
|--------------------------------|--------------------------------|
|--------------------------------|2-------------------------------|
|----------------2-------4-------|--------4-------2-------4-------|
|0-------4-----------------------|--------------------------------|

 |    |    |    |    |    |    |    |
|--------------------------------|--------------------------------|
|--------------------------------|2-------------------------------|
|----------------2-------4-------|--------4-------2---------------|
|0-------4-----------------------|------------------------4-------|

 |    |    |    |    |    |    |    |
|--------------------------------|2-------------------------------|
|----------------2-------4-------|--------4-------2-------4-------|
|0-------4-----------------------|--------------------------------|
|--------------------------------|--------------------------------|

 |    |    |    |    |    |    |    |
|--------------------------------|--------------------------------|
|--------------------------------|2-------------------------------|
|----------------2-------4-------|--------4-------2---------------|
|0-------4-----------------------|------------------------4-------|

 |    |    |    |    |    |    |    |
|------------------------1-------|4-------2-------1---------------|
|--------1-------4---------------|------------------------4-------|
|2-------------------------------|--------------------------------|
|--------------------------------|--------------------------------|

 |    |    |    |    |    |    |    |
|--------------------------------|--------------------------------|
|2-------------------------------|--------------------------------|
|--------4-------2-------4-------|----------------2-------4-------|
|--------------------------------|0-------4-----------------------|

 |    |    |    |    |    |    |    |
|--------------------------------|--------------------------------|
|--------------------------------|2-------------------------------|
|----------------2-------4-------|--------4-------2-------4-------|
|0-------4-----------------------|--------------------------------|

 |    |    |    |    |    |    |    |
|--------------------------------|2-------------------------------|
|----------------2-------4-------|--------4-------2---------------|
|0-------4-----------------------|------------------------4-------|
|--------------------------------|--------------------------------|

 |    |    |    |    |    |    |    |
|--------------------------------|--------------------------------|
|2-------------------------------|----------------2-------4-------|
|--------4-------2-------4-------|0-------4-----------------------|
|--------------------------------|--------------------------------|

 |    |    |    |    |    |    |    |
|--------------------------------|--------------------------------|
|----------------2-------4-------|--------2---------------1-------|
|0-------4-----------------------|3---------------2---------------|
|--------------------------------|--------------------------------|

 |    |    |    |    |    |    |    |
|--------------------------------|--------------------------------|
|--------------------------------|2-------------------------------|
|----------------2-------4-------|--------4-------2-------4-------|
|0-------4-----------------------|--------------------------------|

 |    |    |    |    |    |    |    |
|--------------------------------|2-------------------------------|
|----------------2-------4-------|--------4-------2---------------|
|0-------4-----------------------|------------------------4-------|
|--------------------------------|--------------------------------|

 |    |    |    |    |    |    |    |
|--------------------------------|--------------------------------|
|2-------------------------------|--------------------------------|
|--------4-------2-------4-------|----------------2-------4-------|
|----------------------------0---|--------4-----------------------|

 |    |    |    |    |    |    |    |
|--------------------------------|--------------------------------|
|--------------------------------|----------------0-------1-------|
|2-------------------------------|2-------4-----------------------|
|--------4-------2-------4-------|--------------------------------|

 |    |    |    |    |    |    |    |
|--------------------------------|--------------------------------|
|2-------------------------------|--------------------------------|
|--------4-------2-------4-------|----------------2-------4-------|
|--------------------------------|0-------4-----------------------|

 |    |    |    |    |    |    |    |
|--------------------------------|--------------------------------|
|2-------------------------------|--------------------------------|
|--------4-------2-------4-------|----------------2-------4-------|
|--------------------------------|0-------4-----------------------|

 |    |    |    |    |    |    |    |
|2-------------------------------|--------------------------------|
|--------4-------2-------4---4---|----------------2-------4-------|
|--------------------------------|0-------4-----------------------|
|--------------------------------|--------------------------------|

 |    |    |    |    |    |    |    |
|--------------------------------|--------------------------------|
|2-------------------------------|--------------------------------|
|--------4-------2-------4-------|----------------2-------4-------|
|--------------------------------|0-------4-----------------------|

 |    |    |    |    |    |    |    |
|------------------------1-------|4-------2-------1---------------|
|--------1-------4---------------|------------------------4-------|
|2-------------------------------|--------------------------------|
|--------------------------------|--------------------------------|

 |    |    |    |    |    |    |    |
|--------------------------------|--------------------------------|
|2-------------------------------|--------------------------------|
|--------4-------2-------4-------|----------------2-------4-------|
|--------------------------------|0-------4-----------------------|

 |    |    |    |    |    |    |    |
|--------------------------------|--------------------------------|
|--------------------------------|--------------------------------|
|--------------------------------|--------------------------------|
|0-------------------------------|0-------------------------------|

 |    |    |    |    |    |    |    |
|--------------------------------|--------------------------------|
|--------------------------------|--------------------------------|
|--------------------------------|----------------2-------4-------|
|0-------------------------------|----0---4-----------------------|

 |    |    |    |    |    |    |    |
|--------------------------------|2-------0---------------0-------|
|----------------2-------4-------|----4-----------4---------------|
|0-------4-----------------------|--------------------------------|
|--------------------------------|--------------------------------|

 |    |    |    |    |    |    |    |
|--------------------------------|9-------6-----------------------|
|2-------------------------------|----------------9-------6-------|
|--------4-------2-------4-------|--------------------9-----------|
|--------------------------------|--------------------------------|

 |    |    |    |    |    |    |    |
|--------------------------------|--------------------------------|
|--------------------------------|----------------0-------1-------|
|2-------------------------------|2-------4-----------------------|
|--------4-------2-------4-------|--------------------------------|

 |    |    |    |    |    |    |    |
|--------------------------------|--------------------------------|
|2-------------------------------|2-------------------------------|
|--------4-------2-------4-------|--------4-------2-------4-------|
|--------------------------------|--------------------------------|

 |    |    |    |    |    |    |    |
|--------------------------------|--------------------------------|
|--------------------------------|--------------------------------|
|------------------------2-------|------------------------2-------|
|0-----------4-------------------|0-----------4-------------------|

 |    |    |    |    |    |    |    |
|--------------------------------|--------------------------------|
|--------------------------------|--------------------------------|
|------------------------2-------|------------------------2-------|
|0-----------4-------------------|0-----------4-------------------|

 |    |    |    |    |    |    |    |
|--------------------------------|--------------------------------|
|------------------------2-------|------------------------2-------|
|0-----------4-------------------|0-----------4-------------------|
|--------------------------------|--------------------------------|

 |    |    |    |    |    |    |    |
|--------------------------------|--------------------------------|
|--------------------------------|--------------------------------|
|------------------------2-------|------------------------2-------|
|0-----------4-------------------|0-----------4-------------------|

 |    |    |    |    |    |    |    |
|--------------------------------|--------------------------------|
|------------0-----------4-------|------------0-----------4-------|
|2-------------------------------|2-------------------------------|
|--------------------------------|--------------------------------|

 |    |    |    |    |    |    |    |
|--------------------------------|--------------------------------|
|--------------------------------|2-------------------------------|
|------------------------2-------|--------4-------2-------4-------|
|0-----------4-------------------|--------------------------------|

 |    |    |    |    |    |    |    |
|--------------------------------|--------------------------------|
|2---------------0-------1-------|2---------------0-------1-------|
|--------4-----------------------|--------4-----------------------|
|--------------------------------|--------------------------------|

 |    |    |    |    |    |    |    |
|--------------------------------|------------------------1-------|
|2---------------0-------1-------|2-------3-------4---------------|
|--------4-----------------------|--------------------------------|
|--------------------------------|--------------------------------|

 |    |    |    |    |    |    |    |
|2---------------0-------1-------|2-------------------------------|
|--------4-----------------------|--------4-------2-------4-------|
|--------------------------------|--------------------------------|
|--------------------------------|--------------------------------|

 |    |    |    |    |    |    |    |
|--------------------------------|--------------------------------|
|2-------------------------------|2-------------------------------|
|--------4-------2-------4-------|----------------2-------4-------|
|--------------------------------|--------4-----------------------|

 |    |    |    |    |    |    |    |
|--------------------------------|--------------------------------|
|--------------------------------|--------------------------------|
|2-------2-----------------------|2-------0-----------------------|
|----------------2-------4-------|----------------4-------2-------|

 |    |    |    |    |    |    |    |
|--------------------------------|--------------------------------|
|2---2---------------------------|2-------------------------------|
|--------4-------2-------4-------|--------4-------2-------4-------|
|--------------------------------|--------------------------------|

 |    |    |    |    |    |    |    |
|--------------------------------|--------------------------------|
|--------------------------------|2-------------------------------|
|2-------4-------2-------4---2---|--------4-------2-------4-------|
|--------------------------------|--------------------------------|

 |    |    |    |    |    |    |    |
|--------------------------------|2-------------------------------|
|----------------2-------4---2---|--------4-------2---------------|
|0-------4-----------------------|------------------------4-------|
|--------------------------------|--------------------------------|

 |    |    |    |    |    |    |    |
|--------------------------------|--------------------------------|
|2---2-----------------------2---|--------------------------------|
|--------4-------2-------4-------|----------------2-------4-------|
|--------------------------------|--------4-----------------------|

 |    |    |    |    |    |    |    |
|--------------------------------|9-------12--------------11------|
|----------------2-------4-------|----------------13--------------|
|0-------4-----------------------|--------------------------------|
|--------------------------------|----------------------------0---|

 |    |    |    |    |    |    |    |
|--------------------------------|--------------------------------|
|--------------------------------|2-----------------------2-------|
|----------------2-------4-------|--------4-------2---------------|
|--------4-----------------------|--------------------------------|

 |    |    |    |    |    |    |    |
|--------------------------------|2-------------------------------|
|----------------2-------4-------|--------4-------2---------------|
|0-------4-----------------------|------------------------4-------|
|--------------------------------|--------------------------------|

 |    |    |    |    |    |    |    |
|--------------------------------|--------------------------------|
|2-------------------------------|--------------------------------|
|--------4-------2-------4-------|----------------0-------1-------|
|--------------------------------|0-------4-----------------------|

 |    |    |    |    |    |    |    |
|------------------------1-------|4-------2-------1---------------|
|--------1-------4---------------|------------------------4-------|
|2-------------------------------|--------------------------------|
|--------------------------------|--------------------------------|

 |    |    |    |    |    |    |    |
|--------------------------------|--------------------------------|
|2-------------------------------|2-------------------------------|
|----------------2-------4-------|--------4-------2-------4-------|
|--------4-----------------------|--------------------------------|

 |    |    |    |    |    |    |    |
|--------------------------------|------------------------1-------|
|--------------------------------|2-------3-------4---------------|
|----------------2-------4-------|--------------------------------|
|0-------4-----------------------|--------------------------------|

 |    |    |    |    |    |    |    |
|2-------------------------------|--------------------------------|
|--------4-------2---------------|------------------------1-------|
|------------------------4-------|0-------2-------4---------------|
|--------------------------------|--------------------------------|

 |    |    |    |    |    |    |    |
|--------------------------------|--------------------------------|
|2-------------------------------|--------------------------------|
|--------4-------2-------4-------|----------------0-------1-------|
|----------------------------0---|--------4-----------------------|

 |    |    |    |    |    |    |    |
|------------------------1-------|4-------1---------------1-------|
|--------1-------4---------------|----------------4---------------|
|2-------------------------------|--------------------------------|
|--------------------------------|--------------------------------|

 |    |    |    |    |    |    |    |
|4-------1---------------1-------|--------------------------------|
|----------------4---------------|--------3---2-------------------|
|--------------------------------|2-------------------------------|
|--------------------------------|--------------------------------|

 |    |    |    |    |    |    |    |
|--------------------------------|--------------------------------|
|--------------------------------|2-------------------------------|
|----------------2-------4-------|--------4-------2-------4-------|
|0-------4-----------------------|--------------------------------|

 |    |    |    |    |    |    |    |
|--------------------------------|--------9-------6---------------|
|--------------------------------|6-----------------------9-------|
|----------------2-------4-------|--------------------------------|
|0-------4-----------------------|--------------------------------|

 |    |    |    |    |    |    |    |
|2-------------------------------|--------------------------------|
|--------4-------2---------------|--------------------------------|
|------------------------4-------|0-------2-------3-------4-------|
|--------------------------------|--------------------------------|

 |    |    |    |    |    |    |    |
|--------------------------------|--------------------------------|
|1-------------------------------|2-------------------------------|
|----------------2-------4-------|--------4-------2---------------|
|--------4-----------------------|------------------------4-------|

 |    |    |    |    |    |    |    |
|------------------------1-------|4-------2-------1---------------|
|--------1-------4---------------|------------------------4-------|
|2-------------------------------|--------------------------------|
|--------------------------------|--------------------------------|

 |    |    |    |    |    |    |    |
|4-------1---------------1-------|--------------------------------|
|----------------4---------------|--------3---2-------------------|
|--------------------------------|2-------------------------------|
|--------------------------------|--------------------------------|

 |    |    |    |    |    |    |    |
|--------------------------------|--------------------------------|
|--------------------------------|--------------------------------|
|--------------------------------|--------------------------------|
|--------------------------------|--------------------------------|

 |    |    |    |    |    |    |    |
|--------------------------------|--------------------------------|
|--------------------------------|--------------------------------|
|--------------------------------|------------------------2-------|
|--------------------------------|--------------------------------|

 |    |    |    |    |    |    |    |
|--------------------------------|--------1-------4-------1-------|
|--------------------------------|2---4-----------------------4---|
|----------------2-------4-------|--------------------------------|
|0-------4-----------------------|--------------------------------|

 |    |    |    |    |    |    |    |
|--------------------------------|--------0-----------------------|
|2-------------------------------|2---4-----------4-------2-------|
|----------------2-------4-------|--------------------------------|
|--------4-----------------------|--------------------------------|

 |    |    |    |    |    |    |    |
|--------------------------------|--------------------------------|
|----------------2-------4-------|----------------2---------------|
|0-------4-------------------0---|--------4---------------4-------|
|--------------------------------|--------------------------------|

 |    |    |    |    |    |    |    |
|--------------------------------|--------------------------------|
|2-------------------------------|--------------------------------|
|--------4-------2-------4-------|----------------0-------1-------|
|----------------------------0---|--------4-----------------------|

 |    |    |    |    |    |    |    |
|------------------------1-------|------------------------1-------|
|--------1-------4-----------4---|--------1-------4---------------|
|2-------------------------------|2-------------------------------|
|--------------------------------|--------------------------------|

 |    |    |    |    |    |    |    |
|4---------------1---------------|--------------------------------|
|--------4-----------4-----------|--------3---2-------------------|
|------------------------2-------|2-------------------------------|
|--------------------------------|--------------------------------|




m/

............................................................

Find guitar tabs and chords

A B C D E F G H I J K L M N O P Q R S T U V W X Y Z #