Cosy by The Shadows

Cosy tab by The Shadows

Guitar tabs

Tuning: Standard




Note that Hank plays part C slightly different each time. When you have
learned this you can probably work the small nuances out for yourself.

Try to make the last slide from 2nd to 14th fret sound like a pedal steel.


A           B           C
e|--------7---5---4----|--------5---4---2----|-----------4-5-7-7-7h9-9------5---|
B|-14\9-9---7---5------|---12\7---5---3---2--|-------5-7-5-7-9-9-9---7-9----7---|
G|------------------4--|------------------2--|--6--7-6-7---------------9-8--7---|
D|------------------6--|------------------2--|--7--9----------------------------|
A|---------------------|---------------------|----------------------------------|
E|---------------------|---------------------|----------------------------------|

   (*)       D              E
e|-5-5h7-5-5---5-------|----------------------------|-------------------------|-|
B|---------5h7---7-5---|-5--------7-5-5-5-----------|-------------------------|-|
G|---------------7-6---|-6-6-6-6--7-6-6-6---6-------|--9-7----9-7--9-7-----9-7|-|
D|---------------------|---7-7-7------------7-7-7-7-|------7-----------7------|-|
A|---------------------|----------------------7-7-7-|--------9-----------8----|-|
E|---------------------|----------------------------|-------------------------|-|

F           G
e|---------------------|------------------------------|-------------------------|
B|---------------------|------------------------------|-------------------------|
G|--7-6-----7-6--------|-6---------6------------------|-------------------------|
D|------7-------7-4-5--|---7---7-9---9-7---9--10--9---|-------------------------|
A|--------7------------|-----9-----------9------------|-------------------------|
E|---------------------|------------------------------|-------------------------|

Ending
e|---------7---5----------------------------------------------------------------|
B|--14\9-9---7---5-3--2/14------------------------------------------------------|
G|--------------------2/14------------------------------------------------------|
D|--------------------2/14------------------------------------------------------|
A|------------------------------------------------------------------------------|
E|------------------------------------------------------------------------------|

***********************************
| /  Slide up
| \  Slide down
| h  Hammer-on
***********************************

Playing order:

A B C
A B C
D
E F E G
A B C
D
E F E G
A B C Cup to (*)

Find guitar tabs and chords

A B C D E F G H I J K L M N O P Q R S T U V W X Y Z #