Blue Star by The Shadows

Blue Star bass tab by The Shadows

Bass tabs

Shadows_Blue_Star.btab

TablEdited by Jan Bjorklund
Tuning : E A D G 	Time Signature: 4/4

 tempo 112    |    |    |    |    |
  |
|--------------------------------|6-------6---5---6---------------|
|----------------2-------2-------|------------------------4-------|
|0-------4-----------------------|--------------------------------|
|--------------------------------|--------------------------------|

 |    |    |    |    |    |    |
  |
|----------------2---------------|--------6---5---6---------------|
|------------2-----------2-------|4-----------------------2-------|
|0-------4-----------------------|--------------------------------|
|--------------------------------|--------------------------------|

 |    |    |    |    |    |    |
  |
|--------------------------------|--------------------------------|
|--------------------------------|--------------------------------|
|0---0-------0---0-------0-------|3---3-------3---3-------3-------|
|----------------------------1---|--------------------------------|

 |    |    |    |    |    |    |
  |
|--------------------------------|--------------------------------|
|--------------------------------|2---2-------2---2-------2-------|
|2---2-------2---2-------2-------|--------------------------------|
|----------------------------0---|--------------------------------|

 |    |    |    |    |    |    |
  |
|--------------------------------|--------------------------------|
|--------------------------------|--------------------------------|
|4---4-------4---4-------4-------|3---3-------3---3-------3-------|
|--------------------------------|--------------------------------|

 |    |    |    |    |    |    |
  |
|--------------------------------|--------------------------------|
|----------------------------0---|2---2-------0-------------------|
|2---2-------2---2-------2-------|----------------4-------4-------|
|--------------------------------|--------------------------------|

 |    |    |    |    |    |    |
  |
|--------------------------------|--------------------------------|
|--------------------------------|4---4-------4---4-------4-------|
|2---2-------2---2-------2-------|--------------------------------|
|--------------------------------|--------------------------------|

 |    |    |    |    |    |    |
  |
|--------------------------------|--------------------------------|
|----------------------------1---|2---2---2---2---2---2---2---2---|
|2---2-------2---2-------2-------|--------------------------------|
|--------------------------------|--------------------------------|

 |    |    |    |    |    |    |
  |
|--------------------------------|--------------------------------|
|--------------------------------|--------------------------------|
|4---4-------4---4-------4-------|3---3-------3---3-------3-------|
|--------------------------------|--------------------------------|

 |    |    |    |    |    |    |
  |
|--------------------------------|--------------------------------|
|----------------------------0---|2---2-------2---2---2---2---2---|
|2---2-------2---2-------2-------|--------------------------------|
|--------------------------------|--------------------------------|

 |    |    |    |    |    |    |
  |
|--------------------------------|--------------------------------|
|----------------------------4---|--------------------------------|
|0---0-------0---0-------0-------|3---3-------3---3-------3-------|
|--------------------------------|--------------------------------|

 |    |    |    |    |    |    |
  |
|--------------------------------|----------------6-------6-------|
|----------------------------0---|2---2-------2-------------------|
|2---2-------2---2-------2-------|---------------- and so on -----|
|--------------------------------|--------------------------------|


m/

Find guitar tabs and chords

A B C D E F G H I J K L M N O P Q R S T U V W X Y Z #