Blue Sky Blue Sea Blue Me by The Shadows

Blue Sky Blue Sea Blue Me bass tab by The Shadows

Bass tabs

s/shadows/Blue_sky,_blue_sea,_blue_me.btab

Basstab by Jan Bjorklund, Finland
You are welcome to request for basstabs!
Bienvenidos a pedirme transcripciones para el bajo!
Fingering and positions as suggested by TablEdit.

TablEdited by Jan Bjorklund
Tuning : E A D G 	Time Signature: 4/4

 |    |    |    |    |    |    |    |
|--------------------------------|0-------------------------------|
|0-----------0---0---------------|----------------4-------2-------|
|--------------------------------|--------------------------------|
|--------------------------------|--------------------------------|

 |    |    |    |    |    |    |    |
|--------------------------------|0-------------------------------|
|0-----------0---0---------------|----------------4-------2-------|
|--------------------------------|--------------------------------|
|--------------------------------|--------------------------------|

 |    |    |    |    |    |    |    |
|--------------------------------|0-----------0---0---------------|
|0-----------0---0---------------|--------------------------------|
|--------------------------------|--------------------------------|
|--------------------------------|--------------------------------|

 |    |    |    |    |    |    |    |
|--------------------------------|--------------------------------|
|0-----------0---0---------------|0-------------------------------|
|--------------------------------|----------------0-------0-------|
|--------------------------------|--------------------------------|

 |    |    |    |    |    |    |    |
|--------------------------------|--------------------------------|
|--------------------------------|2-----------2---2---------------|
|2---------------2-------2-------|--------------------------------|
|------------2-------------------|--------------------------------|

 |    |    |    |    |    |    |    |
|--------------------------------|--------------------------------|
|2-----------2---2---------------|--------------------------------|
|--------------------------------|0-----------0---0---------------|
|--------------------------------|--------------------------------|

 |    |    |    |    |    |    |    |
|--------------------------------|0-----------0---0---------------|
|0-----------0---0---------------|--------------------------------|
|--------------------------------|--------------------------------|
|--------------------------------|--------------------------------|

 |    |    |    |    |    |    |    |
|--------------------------------|0-----------0---0---------------|
|0-----------0---0---------------|--------------------------------|
|--------------------------------|--------------------------------|
|--------------------------------|--------------------------------|

 |    |    |    |    |    |    |    |
|--------------------------------|0-----------0---2---------------|
|0-----------0---0---------------|--------------------------------|
|--------------------------------|------------------------0-------|
|--------------------------------|--------------------------------|

 |    |    |    |    |    |    |    |
|--------------------------------|--------------------------------|
|0-----------0---0---------------|0-----------0---0---------------|
|--------------------------------|--------------------------------|
|--------------------------------|--------------------------------|

 |    |    |    |    |    |    |    |
|--------------------------------|------------2---2---------------|
|0-----------0---0---------------|0-----------------------0-------|
|--------------------------------|--------------------------------|
|--------------------------------|--------------------------------|

 |    |    |    |    |    |    |    |
|2-------------------------------|2-----------2-------------------|
|------------2---2-------2-------|----------------0-------0-------|
|--------------------------------|--------------------------------|
|--------------------------------|--------------------------------|

 |    |    |    |    |    |    |    |
|--------------------------------|--------------------------------|
|----------------4---------------|0-----------0---2---------------|
|2-----------2-------------------|--------------------------------|
|--------------------------------|--------------------------------|

 |    |    |    |    |    |    |    |
|--------------------------------|0-----------0---2---------------|
|2-----------2---2---------------|--------------------------------|
|--------------------------------|--------------------------------|
|--------------------------------|--------------------------------|

 |    |    |    |    |    |    |    |
|--------------------------------|0-----------0---0---------------|
|0-----------0---0---------------|--------------------------------|
|--------------------------------|--------------------------------|
|--------------------------------|--------------------------------|

 |    |    |    |    |    |    |    |
|--------------------------------|--------------------------------|
|0-----------0---0---------------|0---------------0---------------|
|--------------------------------|------------0-------------------|
|--------------------------------|--------------------------------|

 |    |    |    |    |    |    |    |
|--------------------------------|--------------------------------|
|--------------------------------|2-----------2---2---------------|
|2---------------2-------2-------|--------------------------------|
|------------2-------------------|--------------------------------|

 |    |    |    |    |    |    |    |
|--------------------------------|--------------------------------|
|2-----------2---2---------------|--------------------------------|
|--------------------------------|0-----------0---0---------------|
|--------------------------------|--------------------------------|

 |    |    |    |    |    |    |    |
|--------------------------------|0-----------0---0---------------|
|0-----------0---0---------------|--------------------------------|
|--------------------------------|--------------------------------|
|--------------------------------|--------------------------------|

 |    |    |    |    |    |    |    |
|--------------------------------|0-----------0---0-------0-------|
|0-----------0---0---------------|--------------------------------|
|--------------------------------|--------------------------------|
|--------------------------------|--------------------------------|

 |    |    |    |    |    |    |    |
|--------------------------------|0-----------0---2---------------|
|0-----------0---0---------------|--------------------------------|
|--------------------------------|------------------------0-------|
|--------------------------------|--------------------------------|

 |    |    |    |    |    |    |    |
|--------2---2---2---------------|--------2---2---2---------------|
|0-------------------------------|0-------------------------------|
|------------------------0-------|------------------------0-------|
|--------------------------------|--------------------------------|

 |    |    |    |    |    |    |    |
|------------2---2---------------|------------2---2---------------|
|0-------------------------------|0-----------------------0-------|
|--------------------------------|--------------------------------|
|--------------------------------|--------------------------------|

 |    |    |    |    |    |    |    |
|2-------------------------------|2-----------2-------------------|
|------------2---2-------2-------|----------------0-------0-------|
|--------------------------------|--------------------------------|
|--------------------------------|--------------------------------|

 |    |    |    |    |    |    |    |
|--------------------------------|------------2-------------------|
|----------------4---------------|0---------------2---------------|
|2-----------2-------------------|----------------------------2---|
|--------------------------------|--------------------------------|

 |    |    |    |    |    |    |    |
|------------4-------------------|0-----------0---2-----------2---|
|2---------------5---2---2-------|--------------------------------|
|--------------------------------|--------------------------------|
|--------------------------------|--------------------------------|

 |    |    |    |    |    |    |    |
|--------------------------------|--------------------------------|
|4-----------4---4---------------|--------------------------------|
|--------------------------------|0-----------0---2---------------|
|--------------------------------|--------------------------------|

 |    |    |    |    |    |    |    |
|--------------------------------|--------------------------------|
|2-----------2---2---------------|--------------------------------|
|--------------------------------|2-----------2---2---------------|
|--------------------------------|--------------------------------|

 |    |    |    |    |    |    |    |
|--------------------------------|--------------------------------|
|2-----------2---2---------------|2-----------2-------------------|
|--------------------------------|----------------2-------2-------|
|--------------------------------|--------------------------------|

 |    |    |    |    |    |    |    |
|--------------------------------|--------------------------------|
|--------------------------------|4-----------4---4---------------|
|4-----------4---4-------4-------|--------------------------------|
|--------------------------------|--------------------------------|

 |    |    |    |    |    |    |    |
|--------------------------------|--------------------------------|
|4-----------4---4---------------|--------------------------------|
|--------------------------------|2-----------2---2---------------|
|--------------------------------|--------------------------------|

 |    |    |    |    |    |    |    |
|--------------------------------|2-------2---2---2-------2-------|
|2-----------2---2---------------|--------------------------------|
|--------------------------------|--------------------------------|
|--------------------------------|--------------------------------|

 |    |    |    |    |    |    |    |
|--------------------------------|--------------------------------|
|2-----------2---2---------------|--------------------------------|
|--------------------------------|0-----------0---0---------------|
|--------------------------------|--------------------------------|

 |    |    |    |    |    |    |    |
|--------------------------------|--------------------------------|
|2-----------2---2-------2-------|--------------------------------|
|--------------------------------|0-----------0---2-------2-------|
|--------------------------------|--------------------------------|

 |    |    |    |    |    |    |    |
|--------------------------------|2---------------1---------------|
|2-----------2---2-------2-------|------------------------4-------|
|--------------------------------|--------------------------------|
|--------------------------------|--------------------------------|

 |    |    |    |    |    |    |    |
|--------------------------------|2-------------------------------|
|2-----------2-----------2-------|------------------------4-------|
|----------------2---------------|--------------------------------|
|--------------------------------|--------------------------------|

 |    |    |    |    |    |    |    |
|--------------------------------|--------------------------------|
|2-------------------------------|--------------------------------|
|--------------------------------|--------------------------------|
|--------------------------------|--------------------------------|




m/

............................................................

Find guitar tabs and chords

A B C D E F G H I J K L M N O P Q R S T U V W X Y Z #