Back Home by The Shadows

Back Home bass tab by The Shadows

Bass tabs

s/shadows/Back_Home.btab

Basstab by Jan Bjorklund, Finland
You are welcome to request for basstabs!
Bienvenidos a pedirme transcripciones para el bajo!
Fingering and positions as suggested by TablEdit.

TablEdited by Jan Bjorklund
Tuning : E A D G 	Time Signature: 4/4

 |    |    |    |    |    |    |    |
|----------------4-------1-------|----------------1-------4-------|
|2-------------------------------|2-------------------------------|
|--------------------------------|--------------------------------|
|--------------------------------|--------------------------------|

 |    |    |    |    |    |    |    |
|----------------4-------1-------|----------------1-------4-------|
|2-------------------------------|2-------------------------------|
|--------------------------------|--------------------------------|
|--------------------------------|--------------------------------|

 |    |    |    |    |    |    |    |
|----------------4-------1-------|----------------1-------4-------|
|2-------------------------------|2-------------------------------|
|--------------------------------|--------------------------------|
|--------------------------------|--------------------------------|

 |    |    |    |    |    |    |    |
|2-------------------------------|2---------------5-------2-------|
|----------------4-------2-------|--------------------------------|
|--------------------------------|--------------------------------|
|--------------------------------|--------------------------------|

 |    |    |    |    |    |    |    |
|----------------1-------4-------|--------------------------------|
|2-------------------------------|----------------1-------4-------|
|--------------------------------|2-------------------------------|
|--------------------------------|--------------------------------|

 |    |    |    |    |    |    |    |
|----------------1-------4-------|--------------------------------|
|2-------------------------------|----------------1-------4-------|
|--------------------------------|2-------------------------------|
|--------------------------------|--------------------------------|

 |    |    |    |    |    |    |    |
|----------------4-------1-------|----------------1-------4-------|
|2-------------------------------|2-------------------------------|
|--------------------------------|--------------------------------|
|--------------------------------|--------------------------------|

 |    |    |    |    |    |    |    |
|2-------------------------------|2---------------5-------2-------|
|----------------4-------2-------|--------------------------------|
|--------------------------------|--------------------------------|
|--------------------------------|--------------------------------|

 |    |    |    |    |    |    |    |
|----------------1-------4-------|--------------------------------|
|2-------------------------------|----------------1-------4-------|
|--------------------------------|2-------------------------------|
|--------------------------------|--------------------------------|

 |    |    |    |    |    |    |    |
|----------------4-------1-------|----------------1-------4-------|
|2-------------------------------|2-------------------------------|
|--------------------------------|--------------------------------|
|--------------------------------|--------------------------------|

 |    |    |    |    |    |    |    |
|2-------------------------------|----------------6---------------|
|----------------4-------2-------|7-----------------------7-------|
|--------------------------------|--------------------------------|
|--------------------------------|--------------------------------|

 |    |    |    |    |    |    |    |
|----------------2-------2-------|----------------1---------------|
|2-------------------------------|2-----------------------2-------|
|--------------------------------|--------------------------------|
|--------------------------------|--------------------------------|

 |    |    |    |    |    |    |    |
|2-----------------------2-------|3-----------------------3-------|
|----------------2---------------|----------------4---------------|
|--------------------------------|--------------------------------|
|--------------------------------|--------------------------------|

 |    |    |    |    |    |    |    |
|4---------------4---------------|4-------------------------------|
|------------------------4-------|----------------4---------------|
|--------------------------------|------------------------2-------|
|--------------------------------|--------------------------------|

 |    |    |    |    |    |    |    |
|----------------4-------1-------|----------------1---------------|
|2-------------------------------|2-----------------------2-------|
|--------------------------------|--------------------------------|
|--------------------------------|--------------------------------|

 |    |    |    |    |    |    |    |
|----------------6-------3-------|----------------3---------------|
|4-------------------------------|4-----------------------4-------|
|--------------------------------|--------------------------------|
|--------------------------------|--------------------------------|

 |    |    |    |    |    |    |    |
|4---------------4---------------|4-------------------------------|
|------------------------4-------|----------------4---------------|
|--------------------------------|------------------------2-------|
|--------------------------------|--------------------------------|

 |    |    |    |    |    |    |    |
|4---6---4-----------------------|--------------------------------|
|------------7---6-------4-------|2-------------------------------|
|--------------------------------|--------------------------------|
|--------------------------------|--------------------------------|

 |    |    |    |    |    |    |    |
|----------------4-------1-------|----------------1-------4-------|
|2-------------------------------|2-------------------------------|
|--------------------------------|--------------------------------|
|--------------------------------|--------------------------------|

 |    |    |    |    |    |    |    |
|2-------------------------------|2---------------5-------2-------|
|----------------4-------2-------|--------------------------------|
|--------------------------------|--------------------------------|
|--------------------------------|--------------------------------|

 |    |    |    |    |    |    |    |
|----------------1-------4-------|--------------------------------|
|2-------------------------------|----------------1-------4-------|
|--------------------------------|2-------------------------------|
|--------------------------------|--------------------------------|

 |    |    |    |    |    |    |    |
|----------------1-------4-------|--------------------------------|
|2-------------------------------|----------------1-------4-------|
|--------------------------------|2-------------------------------|
|--------------------------------|--------------------------------|

 |    |    |    |    |    |    |    |
|----------------4-------1-------|----------------1-------4-------|
|2-------------------------------|2-------------------------------|
|--------------------------------|--------------------------------|
|--------------------------------|--------------------------------|

 |    |    |    |    |    |    |    |
|2-------------------------------|2---------------5-------2-------|
|----------------4-------2-------|--------------------------------|
|--------------------------------|--------------------------------|
|--------------------------------|--------------------------------|

 |    |    |    |    |    |    |    |
|----------------1-------4-------|--------------------------------|
|2-------------------------------|----------------1-------4-------|
|--------------------------------|2-------------------------------|
|--------------------------------|--------------------------------|

 |    |    |    |    |    |    |    |
|----------------4-------1-------|----------------1-------4-------|
|2-------------------------------|2-------------------------------|
|--------------------------------|--------------------------------|
|--------------------------------|--------------------------------|

 |    |    |    |    |    |    |    |
|2-------------------------------|----------------6---------------|
|----------------4-------2-------|7-----------------------7-------|
|--------------------------------|--------------------------------|
|--------------------------------|--------------------------------|

 |    |    |    |    |    |    |    |
|----------------2-------2-------|----------------1---------------|
|2-------------------------------|2-----------------------2-------|
|--------------------------------|--------------------------------|
|--------------------------------|--------------------------------|

 |    |    |    |    |    |    |    |
|2-----------------------2-------|3-----------------------3-------|
|----------------2---------------|----------------4---------------|
|--------------------------------|--------------------------------|
|--------------------------------|--------------------------------|

 |    |    |    |    |    |    |    |
|4---------------4---------------|4-------------------------------|
|------------------------4-------|----------------4---------------|
|--------------------------------|------------------------2-------|
|--------------------------------|--------------------------------|

 |    |    |    |    |    |    |    |
|----------------4-------1-------|----------------1---------------|
|2-------------------------------|2-----------------------2-------|
|--------------------------------|--------------------------------|
|--------------------------------|--------------------------------|

 |    |    |    |    |    |    |    |
|----------------6-------3-------|----------------3---------------|
|4-------------------------------|4-----------------------4-------|
|--------------------------------|--------------------------------|
|--------------------------------|--------------------------------|

 |    |    |    |    |    |    |    |
|4---------------4---------------|4-------------------------------|
|------------------------4-------|----------------4---------------|
|--------------------------------|------------------------2-------|
|--------------------------------|--------------------------------|

 |    |    |    |    |    |    |    |
|4---6---4-----------------------|--------------------------------|
|------------7---6-------4-------|2-------------------------------|
|--------------------------------|--------------------------------|
|--------------------------------|--------------------------------|

 |    |    |    |    |    |    |    |
|----------------4-------1-------|----------------1-------4-------|
|2-------------------------------|2-------------------------------|
|--------------------------------|--------------------------------|
|--------------------------------|--------------------------------|

 |    |    |    |    |    |    |    |
|2-------------------------------|2---------------5-------2-------|
|----------------4-------2-------|--------------------------------|
|--------------------------------|--------------------------------|
|--------------------------------|--------------------------------|

 |    |    |    |    |    |    |    |
|----------------1-------4-------|--------------------------------|
|2-------------------------------|----------------1-------4-------|
|--------------------------------|2-------------------------------|
|--------------------------------|--------------------------------|

 |    |    |    |    |    |    |    |
|----------------1-------4-------|--------------------------------|
|2-------------------------------|----------------1-------4-------|
|--------------------------------|2-------------------------------|
|--------------------------------|--------------------------------|

 |    |    |    |    |    |    |    |
|----------------4-------1-------|----------------1-------4-------|
|2-------------------------------|2-------------------------------|
|--------------------------------|--------------------------------|
|--------------------------------|--------------------------------|

 |    |    |    |    |    |    |    |
|2-------------------------------|2---------------5-------2-------|
|----------------4-------2-------|--------------------------------|
|--------------------------------|--------------------------------|
|--------------------------------|--------------------------------|

 |    |    |    |    |    |    |    |
|----------------1-------4-------|--------------------------------|
|2-------------------------------|----------------1-------4-------|
|--------------------------------|2-------------------------------|
|--------------------------------|--------------------------------|

 |    |    |    |    |    |    |    |
|------------------------6-------|--------------------------------|
|----------------7---------------|----------------1-------4-------|
|7-------------------------------|2-------------------------------|
|--------------------------------|--------------------------------|

 |    |    |    |    |    |    |    |
|----------------4-------1-------|----------------1-------4-------|
|2-------------------------------|2-------------------------------|
|--------------------------------|--------------------------------|
|--------------------------------|--------------------------------|

 |    |    |    |    |    |    |    |
|2-------------------------------|2---------------5-------2-------|
|----------------4-------2-------|--------------------------------|
|--------------------------------|--------------------------------|
|--------------------------------|--------------------------------|

 |    |    |    |    |    |    |    |
|----------------1-------4-------|--------------------------------|
|2-------------------------------|----------------1-------4-------|
|--------------------------------|2-------------------------------|
|--------------------------------|--------------------------------|

 |    |    |    |    |    |    |    |
|------------------------6-------|--------------------------------|
|----------------7---------------|----------------1-------4-------|
|7-------------------------------|2-------------------------------|
|--------------------------------|--------------------------------|




m/

............................................................

Find guitar tabs and chords

A B C D E F G H I J K L M N O P Q R S T U V W X Y Z #