Atlantis by The Shadows

Atlantis tab by The Shadows

Guitar tabs

shadows_atlantis

Basstab by Jan Bjorklund, Finland
You are welcome to request for basstabs!
Fingering and positions as suggested by TablEdit, please use common sense!

TablEdited by Jan Bjorklund
Tuning : E A D G 	Time Signature: 4/4

 |    |    |    |     |    |    |    |
|----------------------------------|----------------------------------|
|----------------------------------|-3-----------3--------------------|
|----------------------------------|-----------------3----------------|
|----------------------------------|----------------------------------|

 |    |    |    |     |    |    |    |
|----------------------------------|----------------------------------|
|-----------------3----------------|----------------------------------|
|-1-----------1--------------------|----------------------------------|
|----------------------------------|-3-----------3---3----------------|

 |    |    |    |     |    |    |    |
|----------------------------------|----------------------------------|
|-----------------0-------2--------|-3-----------3--------------------|
|-3-----------3--------------------|-----------------3-----------3----|
|----------------------------------|----------------------------------|

 |    |    |    |     |    |    |    |
|----------------------------------|----------------------------------|
|-----------------3----------------|-1-----------1---1----------------|
|-1-----------1--------------------|----------------------------------|
|----------------------------------|----------------------------------|

 |    |    |    |     |    |    |    |
|----------------------------------|----------------------------------|
|----------------------------------|-3-----------3---3----------------|
|-3-----------3---3----------------|----------------------------------|
|----------------------------------|----------------------------------|

 |    |    |    |     |    |    |    |
|----------------------------------|----------------------------------|
|-3-----------3---3----------------|----------------------------------|
|----------------------------------|-3-----------3---3----------------|
|----------------------------------|----------------------------------|

 |    |    |    |     |    |    |    |
|----------------------------------|----------------------------------|
|----------------------------------|----------------------------------|
|-3-----------3---3-----------3----|-1-----------1---1----------------|
|----------------------------------|----------------------------------|

 |    |    |    |     |    |    |    |
|----------------------------------|----------------------------------|
|-3-----------3---3----------------|----------------------------------|
|----------------------------------|-3-----------3---3----------------|
|----------------------------------|----------------------------------|

 |    |    |    |     |    |    |    |
|----------------------------------|----------------------------------|
|----------------------------------|----------------------------------|
|-3-----------3---3----------------|-0-----------0---0----------------|
|----------------------------------|----------------------------------|

 |    |    |    |     |    |    |    |
|----------------------------------|----------------------------------|
|-0-----------0---0----------------|----------------------------------|
|----------------------------------|-2-----------2---2----------------|
|----------------------------------|----------------------------------|

 |    |    |    |     |    |    |    |
|----------------------------------|----------------------------------|
|----------------------------------|----------------------------------|
|----------------------------------|-3-----------3---3----------------|
|-3-----------3---3----------------|----------------------------------|

 |    |    |    |     |    |    |    |
|----------------------------------|----------------------------------|
|----------------------------------|----------------------------------|
|-0-----------0---0----------------|-1-----------1---1----------------|
|----------------------------------|----------------------------------|

 |    |    |    |     |    |    |    |
|----------------------------------|----------------------------------|
|----------------------------------|----------------------------------|
|----------------------------------|-3-----------3---3----------------|
|-3-----------3---3----------------|----------------------------------|

 |    |    |    |     |    |    |    |
|----------------------------------|----------------------------------|
|-------------------------0--------|-3-----------3---3----------------|
|-3-----------3---3----------------|----------------------------------|
|----------------------------------|----------------------------------|

 |    |    |    |     |    |    |    |
|----------------------------------|----------------------------------|
|-3-----------3---3----------------|----------------------------------|
|----------------------------------|-3-----------3---3----------------|
|----------------------------------|----------------------------------|

 |    |    |    |     |    |    |    |
|----------------------------------|----------------------------------|
|----------------------------------|----------------------------------|
|-3-----------3---3-----------3----|-1-----------1---1----------------|
|----------------------------------|----------------------------------|

 |    |    |    |     |    |    |    |
|----------------------------------|----------------------------------|
|-3-----------3---3----------------|----------------------------------|
|-------------------------3--------|-3-----------3---3----------------|
|----------------------------------|----------------------------------|

 |    |    |    |     |    |    |    |
|----------------------------------|----------------------------------|
|----------------------------------|----------------------------------|
|-3-----------3---3----------------|-0-------0------------------------|
|----------------------------------|----------------------------------|

 |    |    |    |     |    |    |    |
|----------------------------------|----------------------------------|
|-0-----------0---0----------------|----------------------------------|
|----------------------------------|-2-----------2---2----------------|
|----------------------------------|----------------------------------|

 |    |    |    |     |    |    |    |
|----------------------------------||---------------------------------|
|----------------------------------|*---------------------------------|
|----------------------------------|*3-----------3---3----------------|
|-3-----------3---3----------------||---------------------------------|

 |    |    |    |    >1|    |    |    |
|---------------------------------||----------------------------------|
|---------------------------------||----------------------------------|
|-0-----------0---0---------------||-1-----------1---1----------------|
|---------------------------------||----------------------------------|

 |    |    |    |     |    |    |    |
|----------------------------------|----------------------------------|
|----------------------------------|----------------------------------|
|----------------------------------|-3-----------3---3----------------|
|-3-----------3---3----------------|----------------------------------|

 |    |    |    |     |    |    |    |
|----------------------------------|----------------------------------|
|-----------------0-------2--------|-3-----------3--------------------|
|-3-----------3--------------------|-----------------3----------------|
|----------------------------------|----------------------------------|

 |    |    |    |     |    |    |    |
|----------------------------------|----------------------------------|
|-----------------3----------------|----------------------------------|
|-1-----------1--------------------|----------------------------------|
|----------------------------------|-3-----------3---3----------------|

 |    |    |    |     |    |    |    |
|----------------------------------|----------------------------------|
|-----------------0-------2--------|-3-----------3--------------------|
|-3-----------3--------------------|-----------------3-----------3----|
|----------------------------------|----------------------------------|

 |    |    |    |     |    |    |    |
|----------------------------------|----------------------------------|
|-----------------3-----------3----|-1-----------1---1----------------|
|-1-----------1--------------------|----------------------------------|
|----------------------------------|----------------------------------|

 |    |    |    |     |    |    |    |
|----------------------------------|----------------------------------|
|-------------------------0--------|-3-----------3---3----------------|
|-3-----------3---3----------------|----------------------------------|
|----------------------------------|----------------------------------|

 |    |    |    |     |    |    |    |
|----------------------------------|----------------------------------|
|-3-----------3---3----------------|----------------------------------|
|----------------------------------|-3-----------3---3----------------|
|----------------------------------|----------------------------------|

 |    |    |    |     |    |    |    |
|----------------------------------|----------------------------------|
|----------------------------------|----------------------------------|
|-3-----------3---3----------------|-1-----------1---1----------------|
|----------------------------------|----------------------------------|

 |    |    |    |     |    |    |    |
|----------------------------------|----------------------------------|
|-3-----------3---3----------------|----------------------------------|
|----------------------------------|-3-----------3---3----------------|
|----------------------------------|----------------------------------|

 |    |    |    |     |    |    |    |
|----------------------------------|----------------------------------|
|----------------------------------|----------------------------------|
|-3-----------3---3-------3--------|-0-------0------------------------|
|----------------------------------|----------------------------------|

 |    |    |    |     |    |    |    |
|----------------------------------|----------------------------------|
|-0-----------0---0----------------|----------------------------------|
|----------------------------------|-2-----------2---2----------------|
|----------------------------------|----------------------------------|

 |    |    |    |    >2|    |    |    |
|---------------------------------||----------------------------------|
|---------------------------------*|----------------------------------|
|---------------------------------*|-1-----------1---1----------------|
|-3-----------3---3---------------||----------------------------------|

 |    |    |    |     |    |    |    |
|----------------------------------|----------------------------------|
|----------------------------------|----------------------------------|
|----------------------------------|-3-----------3---3----------------|
|-3-----------3---3----------------|----------------------------------|

 |    |    |    |     |    |    |    |
|----------------------------------|----------------------------------|
|-----------------0-------2--------|-3-----------3--------------------|
|-3-----------3--------------------|-----------------3----------------|
|----------------------------------|----------------------------------|

 |    |    |    |     |    |    |    |
|----------------------------------|----------------------------------|
|-----------------3-----------3----|----------------------------------|
|-1-----------1--------------------|----------------------------------|
|----------------------------------|-3-----------3---3----------------|

 |    |    |    |     |    |    |    |
|----------------------------------|----------------------------------|
|-----------------0-------2--------|-3-----------3--------------------|
|-3-----------3--------------------|-----------------3----------------|
|----------------------------------|----------------------------------|

 |    |    |    |     |    |    |    |
|----------------------------------|----------------------------------|
|-----------------3----------------|-1-----------1---1----------------|
|-1-----------1--------------------|----------------------------------|
|----------------------------------|----------------------------------|

 |    |    |    |     |    |    |    |
|----------------------------------|----------------------------------|
|-1-----------1---1-----------1----|-3-------3------------------------|
|----------------------------------|---------------------3-------3----|
|----------------------------------|----------------------------------|

 |    |    |    |     |    |    |    |
|----------------------------------|----------------------------------|
|-3-------3------------------------|-1-----------1---1----------------|
|---------------------3-------3----|----------------------------------|
|----------------------------------|----------------------------------|

 |    |    |    |     |    |    |    |
|----------------------------------|----------------------------------|
|-1-----------1---1-----------1----|-3-------3------------------------|
|----------------------------------|---------------------3-------3----|
|----------------------------------|----------------------------------|

 |    |    |    |     |    |    |    |
|----------------------------------|----------------------------------|
|-3-------3------------------------|-3-------3------------------------|
|---------------------3-------3----|---------------------3-------3----|
|----------------------------------|----------------------------------|

 |    |    |    |
|----------------------------------|
|-3-------3------------------------|
|----------------------------------|
|----------------------------------|

m/

Other versions of Atlantis

Alternative guitar chords and tabs for Atlantis by The Shadows

Find guitar tabs and chords

A B C D E F G H I J K L M N O P Q R S T U V W X Y Z #