All Day by The Shadows

All Day bass tab by The Shadows

Bass tabs

s/shadows/All_day.btab

Basstab by Jan Bjorklund, Finland
You are welcome to request for basstabs!
Bienvenidos a pedirme transcripciones para el bajo!
Fingering and positions as suggested by TablEdit.

TablEdited by Jan Bjorklund
Tuning : E A D G 	Time Signature: 4/4

 |    |    |    |    |    |    |    |
|--------------------------------|--------------------------------|
|------------1---3-------1-------|------------1---3-------1-------|
|--------------------------------|--------------------------------|
|4-------------------------------|4-------------------------------|

 |    |    |    |    |    |    |    |
|--------------------------------|--------------------------------|
|------------1---3-------1-------|--------------------------------|
|--------------------------------|--------------------------------|
|4-------------------------------|4-------------------------------|

 |    |    |    |    |    |    |    |
|------------3---5-------3-------|------------3---5-------3-------|
|--------------------------------|--------------------------------|
|6-------------------------------|6-------------------------------|
|--------------------------------|--------------------------------|

 |    |    |    |    |    |    |    |
|--------------------------------|--------------------------------|
|------------1---3-------1-------|------------1---3-------1-------|
|--------------------------------|--------------------------------|
|4-------------------------------|4-------------------------------|

 |    |    |    |    |    |    |    |
|------------3---5-------3-------|------------3---5-------3-------|
|--------------------------------|--------------------------------|
|6-------------------------------|6-------------------------------|
|--------------------------------|--------------------------------|

 |    |    |    |    |    |    |    |
|--------------------------------|--------------------------------|
|------------1---3-------1-------|--------------------------------|
|--------------------------------|--------------------------------|
|4-------------------------------|4-------------------------------|

 |    |    |    |    |    |    |    |
|------------3---5-------3-------|------------3---5-------3-------|
|--------------------------------|--------------------------------|
|6-------------------------------|6-------------------------------|
|--------------------------------|--------------------------------|

 |    |    |    |    |    |    |    |
|--------------------------------|--------------------------------|
|------------1---3-------1-------|------------1---3-------1-------|
|--------------------------------|--------------------------------|
|4-------------------------------|4-------------------------------|

 |    |    |    |    |    |    |    |
|------------3---5-------3-------|------------3---5-------3-------|
|--------------------------------|--------------------------------|
|6-------------------------------|6-------------------------------|
|--------------------------------|--------------------------------|

 |    |    |    |    |    |    |    |
|--------------------------------|--------------------------------|
|------------1---3-------1-------|--------------------------------|
|--------------------------------|--------------------------------|
|4-------------------------------|4-------------------------------|

 |    |    |    |    |    |    |    |
|--------------------------------|--------------------------------|
|------------1---3-------1-------|------------1---3-------1-------|
|--------------------------------|--------------------------------|
|4-------------------------------|4-------------------------------|

 |    |    |    |    |    |    |    |
|------------3---5-------3-------|------------3---5-------3-------|
|--------------------------------|--------------------------------|
|6-------------------------------|6-------------------------------|
|--------------------------------|--------------------------------|

 |    |    |    |    |    |    |    |
|------------3---5-------3-------|------------3---5-------3-------|
|--------------------------------|--------------------------------|
|6-------------------------------|6-------------------------------|
|--------------------------------|--------------------------------|

 |    |    |    |    |    |    |    |
|--------------------------------|--------------------------------|
|------------1---3-------1-------|--------------------------------|
|--------------------------------|--------------------------------|
|4-------------------------------|4-------------------------------|

 |    |    |    |    |    |    |    |
|--------------------------------|--------------------------------|
|------------1---3-------1-------|------------1---3-------1-------|
|--------------------------------|--------------------------------|
|4-------------------------------|4-------------------------------|

 |    |    |    |    |    |    |    |
|------------3---5-------3-------|------------3---5-------3-------|
|--------------------------------|--------------------------------|
|6-------------------------------|6-------------------------------|
|--------------------------------|--------------------------------|

 |    |    |    |    |    |    |    |
|------------3---5-------3-------|------------3---5-------3-------|
|--------------------------------|--------------------------------|
|6-------------------------------|6-------------------------------|
|--------------------------------|--------------------------------|

 |    |    |    |    |    |    |    |
|--------------------------------|--------------------------------|
|------------1---3-------1-------|--------------------------------|
|--------------------------------|--------------------------------|
|4-------------------------------|4-------------------------------|

 |    |    |    |    |    |    |    |
|------------3---5-------3-------|------------3---5-------3-------|
|--------------------------------|--------------------------------|
|6-------------------------------|6-------------------------------|
|--------------------------------|--------------------------------|

 |    |    |    |    |    |    |    |
|--------------------------------|--------------------------------|
|------------1---3-------1-------|------------1---3-------1-------|
|--------------------------------|--------------------------------|
|4-------------------------------|4-------------------------------|

 |    |    |    |    |    |    |    |
|------------3---5-------3-------|------------3---5-------3-------|
|--------------------------------|--------------------------------|
|6-------------------------------|6-------------------------------|
|--------------------------------|--------------------------------|

 |    |    |    |    |    |    |    |
|--------------------------------|--------------------------------|
|------------1---3-------1-------|--------------------------------|
|--------------------------------|--------------------------------|
|4-------------------------------|4-------------------------------|

 |    |    |    |    |    |    |    |
|------------3---5-------3-------|------------3---5-------3-------|
|--------------------------------|--------------------------------|
|6-------------------------------|6-------------------------------|
|--------------------------------|--------------------------------|

 |    |    |    |    |    |    |    |
|--------------------------------|--------------------------------|
|------------1---3-------1-------|------------1---3-------1-------|
|--------------------------------|--------------------------------|
|4-------------------------------|4-------------------------------|

 |    |    |    |    |    |    |    |
|------------3---5-------3-------|------------3---5-------3-------|
|--------------------------------|--------------------------------|
|6-------------------------------|6-------------------------------|
|--------------------------------|--------------------------------|

 |    |    |    |    |    |    |    |
|--------------------------------|--------------------------------|
|------------1---3-------1-------|--------------------------------|
|--------------------------------|--------------------------------|
|4-------------------------------|4-------------------------------|

 |    |    |    |    |    |    |    |
|--------------------------------|--------------------------------|
|------------1---3-------1-------|------------1---3-------1-------|
|--------------------------------|--------------------------------|
|4-------------------------------|4-------------------------------|

 |    |    |    |    |    |    |    |
|------------3---5-------3-------|------------3---5-------3-------|
|--------------------------------|--------------------------------|
|6-------------------------------|6-------------------------------|
|--------------------------------|--------------------------------|

 |    |    |    |    |    |    |    |
|------------3---5-------3-------|------------3---5-------3-------|
|--------------------------------|--------------------------------|
|6-------------------------------|6-------------------------------|
|--------------------------------|--------------------------------|

 |    |    |    |    |    |    |    |
|--------------------------------|--------------------------------|
|------------1---3-------1-------|--------------------------------|
|--------------------------------|--------------------------------|
|4-------------------------------|4-------------------------------|

 |    |    |    |    |    |    |    |
|--------------------------------|--------------------------------|
|------------1---3-------1-------|------------1---3-------1-------|
|--------------------------------|--------------------------------|
|4-------------------------------|4-------------------------------|

 |    |    |    |    |    |    |    |
|------------3---5-------3-------|------------3---5-------3-------|
|--------------------------------|--------------------------------|
|6-------------------------------|6-------------------------------|
|--------------------------------|--------------------------------|

 |    |    |    |    |    |    |    |
|------------3---5-------3-------|------------3---5-------3-------|
|--------------------------------|--------------------------------|
|6-------------------------------|6-------------------------------|
|--------------------------------|--------------------------------|

 |    |    |    |    |    |    |    |
|--------------------------------|--------------------------------|
|------------1---3-------1-------|--------------------------------|
|--------------------------------|--------------------------------|
|4-------------------------------|4-------------------------------|

 |    |    |    |    |    |    |    |
|------------3---5-------3-------|------------3---5-------3-------|
|--------------------------------|--------------------------------|
|6-------------------------------|6-------------------------------|
|--------------------------------|--------------------------------|

 |    |    |    |    |    |    |    |
|--------------------------------|--------------------------------|
|------------1---3-------1-------|------------1---3-------1-------|
|--------------------------------|--------------------------------|
|4-------------------------------|4-------------------------------|

 |    |    |    |    |    |    |    |
|------------3---5-------3-------|------------3---5-------3-------|
|--------------------------------|--------------------------------|
|6-------------------------------|6-------------------------------|
|--------------------------------|--------------------------------|

 |    |    |    |    |    |    |    |
|--------------------------------|--------------------------------|
|--------------------------------|1-------------------------------|
|--------------------------------|--------------------------------|
|4-------------------------------|--------------------------------|

 |    |    |    |    |    |    |    |
|--------------------------------|--------------------------------|
|--------------------------------|--------------------------------|
|3-------------------------------|--------------------------------|
|--------------------------------|4-------4---4---4---------------|


m/

............................................................

Find guitar tabs and chords

A B C D E F G H I J K L M N O P Q R S T U V W X Y Z #