Africa by The Shadows

Africa tab by The Shadows

Guitar tabs

Transcribed by: Richard Codron
Email: bcodron@bigpond.net.au

------------------------------------------------------------|--------|--------
------------------------------------------------------------|--------|--------
-----------------------3-4----------------------------------|--------|--------
-4-4-4-4-4-4-4-4-4-4-6------1-1-2-4-4-2-2-1-1-------1-------|--------|--------
----------------------------------------------2-4-2---4-2-4-|--------|--------
------------------------------------------------------------|--------|--------
                                repeat

-------------------------------------------------|-5-5-5-5-5-5-5-5-5-4-4------
-----------------------------4-5-7--7-7-5-5-4-5--|----------------------------
-----------------------------4-6-8--8-8-6-6-4-6--|----------------------------
-------------------------3-4---------------------|----------------------------
-4-4-4-4-4-4-4-4-4-4-4-6-------------------------|----------------------------
-------------------------------------------------|----------------------------
                             chorus

-5-5-5-5-5-5-5-5-5-5-4-4-|-------------|-----4-5-4-2-|-------|----------------
-7-7-7-7-7-7-7-7-7-5-5-5-|-------------|-7-5-5-5-5-2-|-------|----------------
-6-6-6-6-7-7-7-7-7-6-4-4-|-------------|-7-6---------|-------|-4-4-4-3--3-3-4-
-------------------------|-------------|-------------|-------|-4-4-4-4--4-4-4-
-------------------------|-------------|-------------|-------|----------------
-------------------------|-------------|-------------|-------|----------------
              repeat twice        verse

-------------------------------------|----------------------------------------
--2-4--------------------------------|----------------2/4-2----4-5-7--7-7-5-5-
--3-4--------------------------------|----------------------4--4-6-8--8-8-6-6-
-----1-1-2-4-4-2-2-1-1---------------|-4-4-4-4-4-4-4-4------------------------
-----------------------4-2-4/6-4-2-4-|----------------------------------------
-------------------------------------|----------------------------------------


-----|--------|-------|-------|-------|------|--------------------------------
-4-5-|--------|-------|-------|-------|------|--------------------------------
-4-6-|--------|-------|-------|-------|------|--------------------------------
-----|--------|-------|-------|-------|------|--------------------------------
-----|--------|-------|-------|-------|------|--------------------------------
-----|--------|-------|-------|-------|------|--------------------------------
    chorus  Intro ad lib  chorus  Intro

Find guitar tabs and chords

A B C D E F G H I J K L M N O P Q R S T U V W X Y Z #