36 24 36 by The Shadows

36 24 36 bass tab by The Shadows

Bass tabs

The Shadows
Written by Jet Harris, Hank Marvin, Tony Meehan and Bruce Welch; released as
a B-side to "Kon-Tiki"

Intro:
G|------- 5------ 3------ 3------|------- 5------ ------- -------|
D|------------5-------5-------5--|------------5---3-------5------|
A|3------------------------------|3------------------------------|
E|-------------------------------|-------------------------------|



G|------- 5------ 3------ 3------|------- 5------ ------- -------|
D|------------5-------5-------5--|------------5---3-------5------|
A|3------------------------------|3---------------------------5--|
E|-------------------------------|-------------------------------|


Verse:
G|------- 5------ 3------ 3------|------- 5------ ------- -------|
D|------------5-------5-------5--|------------5---3-------5------|
A|3------------------------------|3---------------------------5--|
E|-------------------------------|-------------------------------|



G|------- 5------ 3------ 3------|------- 5------ ------- -------|
D|------------5-------5-------5--|------------5---3-------5------|
A|3------------------------------|3---------------------------5--|
E|-------------------------------|-------------------------------|



G|------- 5------ 3------ 3------|------- 5------ ------- -------|
D|------------5-------5-------5--|------------5---3-------5------|
A|3------------------------------|3------------------------------|
E|-------------------------------|-------------------------------|



G|------- 5------ 3------ 3------|------- 5------ ------- -------|
D|------------5-------5-------5--|------------5---3-------5------|
A|3------------------------------|3---------------------------5--|
E|-------------------------------|-------------------------------|


Verse:
G|------- 5------ 3------ 3------|------- 5------ ------- -------|
D|------------5-------5-------5--|------------5---3-------5------|
A|3------------------------------|3---------------------------5--|
E|-------------------------------|-------------------------------|



G|------- 5------ 3------ 3------|------- 5------ ------- -------|
D|------------5-------5-------5--|------------5---3-------5------|
A|3------------------------------|3---------------------------5--|
E|-------------------------------|-------------------------------|



G|------- 5------ 3------ 3------|------- 5------ ------- -------|
D|------------5-------5-------5--|------------5---3-------5------|
A|3------------------------------|3------------------------------|
E|-------------------------------|-------------------------------|



G|------- 5------ 3------ 3------|------- 5------ ------- -------|
D|------------5-------5-------5--|------------5---3-------5------|
A|3------------------------------|3------------------------------|
E|-------------------------------|-------------------------------|


Bridge:
G|------- ------- ------- -------|------- ------- ------- -------|
D|3-------3-------3-----------3--|----3-------3---3-------4------|
A|-------------------------------|-------------------------------|
E|-------------------------------|-------------------------------|



G|------- ------- ------- -------|------- ------- ------- -------|
D|5-------5-------5-----------5--|----5-------5---5-------5------|
A|-------------------------------|-------------------------------|
E|-------------------------------|-------------------------------|



G|------- ------- ------- -------|------- ------- ------- -------|
D|-------------------------------|-------------------------------|
A|3------------------------------|-------------------------------|
E|-------------------------------|-------------------------------|



G|------- ------- ------- -------|------- ------- ------- -------|
D|-------------------------------|-------------------------------|
A|-------------------------------|-------------------------------|
E|-------------------------------|-------------------------------|



G|------- ------- ------- -------|------- ------- ------- -------|
D|-------------------------------|-------------------------------|
A|-------------------------------|-------------------------------|
E|-------------------------------|-------------------------------|



G|------- ------- ------- -------|------- ------- ------- -------|
D|-------------------------------|3---3---3---5-------5---5------|
A|3-------3-------1--------------|-------------------------------|
E|-------------------------------|-------------------------------|



G|------- ------- ------- -------|------- ------- ------- -------|
D|-------------------------------|-------------------------------|
A|3------------------------------|-------------------------------|
E|-------------------------------|-------------------------------|


Verse:
G|------- 5------ 3------ 3------|------- 5------ ------- -------|
D|------------5-------5-------5--|------------5---3-------5------|
A|3------------------------------|3------------------------------|
E|-------------------------------|-------------------------------|



G|------- 5------ 3------ 3------|------- 5------ 3------ 5------|
D|------------5-------5-------5--|------------5------------------|
A|3------------------------------|3------------------------------|
E|-------------------------------|-------------------------------|



G|------- 5------ 3------ 3------|------- 5------ ------- -------|
D|------------5-------5-------5--|------------5---3-------5------|
A|3------------------------------|3------------------------------|
E|-------------------------------|-------------------------------|



G|------- ------- ------- -------|------- ------- ------- -------|
D|-------------------------------|-------------------------------|
A|3------------------------------|-------------------------------|
E|-------------------------------|-------------------------------|


Bridge:
G|------- ------- ------- -------|------- ------- ------- -------|
D|3-------3-------3-----------3--|----3-------3---3-------4------|
A|-------------------------------|-------------------------------|
E|-------------------------------|-------------------------------|



G|------- ------- ------- -------|------- ------- ------- -------|
D|5-------5-------5-----------5--|----5-------5---5-------5------|
A|-------------------------------|-------------------------------|
E|-------------------------------|-------------------------------|



G|------- ------- ------- -------|------- ------- ------- -------|
D|-------------------------------|-------------------------------|
A|3------------------------------|-------------------------------|
E|-------------------------------|-------------------------------|



G|------- ------- ------- -------|------- ------- ------- -------|
D|-------------------------------|-------------------------------|
A|-------------------------------|-------------------------------|
E|-------------------------------|-------------------------------|



G|------- ------- ------- -------|------- ------- ------- -------|
D|-------------------------------|-------------------------------|
A|-------------------------------|-------------------------------|
E|-------------------------------|-------------------------------|



G|------- ------- ------- -------|------- ------- ------- -------|
D|-------------------------------|3---3---3---5-------5---5------|
A|3-------3-------1--------------|-------------------------------|
E|-------------------------------|-------------------------------|


Verse:
G|------- 5------ 3------ 3------|------- 5------ ------- -------|
D|------------5-------5-------5--|------------5---3-------5------|
A|-------------------------------|3------------------------------|
E|-------------------------------|-------------------------------|



G|------- 5------ 3------ 3------|------- 5------ ------- -------|
D|------------5-------5-------5--|------------5---3-------5------|
A|3------------------------------|3------------------------------|
E|-------------------------------|-------------------------------|



G|------- 5------ 3------ 3------|------- 5------ ------- -------|
D|------------5-------5-------5--|------------5---3-------5------|
A|3------------------------------|3------------------------------|
E|-------------------------------|-------------------------------|



G|------- 5------ 3------ 3------|------- 5------ ------- -------|
D|------------5-------5-------5--|------------5---3-------5------|
A|3------------------------------|3------------------------------|
E|-------------------------------|-------------------------------|


Outro:
G|------- 5------ 3------ 3------|------- 5------ ------- -------|
D|------------5-------5-------5--|------------5---3-------5------|
A|3------------------------------|3------------------------------|
E|-------------------------------|-------------------------------|
Repeat and fade out...

Find guitar tabs and chords

A B C D E F G H I J K L M N O P Q R S T U V W X Y Z #