Log in

One click and you are in

Login with Facebook Login with Google

Why sign up and log in

Guitar Tabs Explorer
Sevendust guitar tabs for Angels son

Guitar tabs with lyrics

There are two versions of this song, one as it appears on the Cd and one with
Straight Up.
I’m pretty sure this is the CD version but I accidently downloaded the other
version over
the one I was tabbing so I’m not sure all is correct. I tried to make this
tab in regular

tuning for one guitar.  This made sense to me and sounds like the song.
Chords:
   A chord diagramDbDb A chord diagramA majorA A chord diagramGbGb A chord diagramCbCb   Db*
   | |  |  /    \
e- x x  x  x    x
B- x x  x  x    x
G- 6 x  x  4    6
D- 6 7  4  4    6
A- 4 7  4  2    4
D- x 5  2  x    4


Intro:
(try barring the 2nd fret)
e:----------------------------------------------------------------
B:------2-------2-------2-------2--------2-2-2-------2-2-2--------
G:-----4-4-----4-4-----4-4-----4-4------4-4-4-4-----4-4-4-4-------
D:----------------------------------------------------------------
A:--2-------4-----------------------------------------------------
E:------------------0-------2-------3------------3----------------

e:--------------------------------------------------2-----------------
B:------2-------2-------2-------2--------2-2-2------2---(lightly strum
G:-----4-4-----4-4-----4-4-----4-4------4-4-4-4-----4----and let ring)
D:--------------------------------------------------2-----------------
A:--2-------4---------------------------------------2-----------------
E:------------------0-------2-------3------------3--3-----------------

Verse:
  Gtr#1 plays this chord progression if playing w/ two guitars
    --Db-Db-xxxxxx-Db*-Db*-xxxxxx-Gb-Gb-xxxxxx-Db*-Db*-xxxxxx--

  Gtr#2
e:-------------------------------------------------------------
B:----------0-0-0---------0-0---0---------0-0-0---------0-0-0--
G:-66---4444-3-1------1111---1/2------2222-1--------1111-------
D:-66-------------66-------4-------44--------4--66-------4-3---
A:-44-------------44---------------44-----------44-------------
E:----------------44---------------22-----------44-------------
  DbDb            Db*Db*          GbGb         Db*Db* <1st guitar if playing
w/ two guitars>


Bridge:
  ’i know you never said goodbye...’
  --Db--Gb--A--Cb--Db--Gb--


Chorus:
  ’one last song...’
  --Db--A--Db--Gb--Db--Gb--


Outro: (Same as Intro)
e:----------------------------------------------------------------
B:------2-------2-------2-------2--------2-2-2-------2-2-2--------
G:-----4-4-----4-4-----4-4-----4-4------4-4-4-4-----4-4-4-4-------
D:----------------------------------------------------------------
A:--2-------4-----------------------------------------------------
E:------------------0-------2-------3------------3----------------

e:--------------------------------------------------2-----------------
B:------2-------2-------2-------2--------2-2-2------2---(lightly strum
G:-----4-4-----4-4-----4-4-----4-4------4-4-4-4-----4----and let ring)
D:--------------------------------------------------2-----------------
A:--2-------4---------------------------------------2-----------------
E:------------------0-------2-------3------------3--3-----------------

Almost there ...

Sign in to get your own page with links to favourite songs and more. You are just one click away...

Login with Facebook Login with Google