Log in

One click and you are in

Login with Facebook Login with Google

Why sign up and log in

Guitar Tabs Explorer
Seven Mary Three guitar tabs for Blackwing

Guitar tabs with lyrics

Intro:

   A chord diagramD MajorD           A chord diagramDsus2Dsus2
e|-2---2-2------0---0---------------0------------------------|
B|-3-3-3-3------3-----3---------------3-------3-----3--------|
G|-2-2---2-2----2-2-------2---0h2-2-------2---0h2-2---2---2--| play 3 times
D|-0-0-----0-0--0-------0-----0---------0-----0---------0-0--|
A|-----------------------------------------------------------|
E|-----------------------------------------------------------|


Verse 1:

  A chord diagramD MajorD
e|---------------------------------------------------|
B|---------------------------------------------------|
G|-----2-2---2-2----4-2-0-2------2-2---2-2---4-2-0-2-|
D|-0-0-----0-----0-----------0-0-----0-----0---------|
A|---------------------------------------------------|
E|---------------------------------------------------|
  Rise phoenix out of her

  A chord diagramBB                          A chord diagramD MajorD
e|---------------------------------------------------|
B|---------------------------------------------------|
G|-----2-2---2-2----4-2-0-2------2-2---2-2---4-2-0-2-|
D|---------------------------0-0-----------0---------|
A|-2-2-----2-----2-----------------------------------|
E|---------------------------------------------------|
  Twice no one died she said

  A chord diagramD MajorD
e|---------------------------------------------------|
B|---------------------------------------------------|
G|-----2-2---2-2----4-2-0-2------2-2---2-2---4-2-0-2-|
D|-0-0-----0-----0-----------0-0-----0-----0---------|
A|---------------------------------------------------|
E|---------------------------------------------------|
  Blackwing is burning now

  A chord diagramBB                          A chord diagramD MajorD
e|-------------------------------0-----2-----3-2-0-2-|
B|-------------------------------3-----3-----3-3-3-3-|
G|-----2-2---2-2----4-2-0-2------2-2---2-2---2-2-2-2-|
D|---------------------------0-0-----------0---------|
A|-2-2-----2-----2-----------------------------------|
E|---------------------------------------------------|
  Pray mercy finds her way


Interlude:

  A chord diagramA majorA                           A chord diagramG MajorG
e|-----0-0---0-0----3-3-3-2---3----3-3---3-3---3-3-3-3--|
B|-2-2-2-2---2-2----3-3-3-3---3--3-3-3-3-3-3-3-3-3-3-3--|
G|-2-2-2-2-2-2-2-2--2-2-2-2---0--0-0-0-0-0-0-0-0-0-0-0--|
D|-2-2-----2-----2--2-2-2-2---0--0-----0-----0-----0-0--|
A|-0-0-----0-----0------------2--------------------2----|
E|----------------------------3-------------------------|

  A chord diagramD MajorD
e|---------------------------------------------------|
B|---------------------------------------------------|
G|-----2-2---2-2----4-2-0-2------2-2---2-2---4-2-0-2-|
D|-0-0-----0-----0-----------0-0-----0-----0---------|
A|---------------------------------------------------|
E|---------------------------------------------------|


Verse 2:


  A chord diagramD MajorD
e|---------------------------------------------------|
B|---------------------------------------------------|
G|-----2-2---2-2----4-2-0-2------2-2---2-2---4-2-0-2-|
D|-0-0-----0-----0-----------0-0-----0-----0---------|
A|---------------------------------------------------|
E|---------------------------------------------------|
  Old blackwing drown my town

  A chord diagramBB                          A chord diagramD MajorD
e|-----------------------------------------------------|
B|-----------------------------------------------------|
G|-----2-2---2-2----2h4-2-0-2------2-2---2-2---4-2-0-2-|
D|-----------------------------0-0-----------0---------|
A|-2-2-----2-----2-------------------------------------|
E|-----------------------------------------------------|
  cause I didn't hear her coming

  A chord diagramD MajorD
e|---------------------------------------------------|
B|---------------------------------------------------|
G|-----2-2---2-2----4-2-0-2------2-2---2-2---4-2-0-2-|
D|-0-0-----0-----0-----------0-0-----0-----0---------|
A|---------------------------------------------------|
E|---------------------------------------------------|
  I named a hurricane

  A chord diagramBB                          A chord diagramD MajorD
e|-------------------------------0-----2-----3-2-0-2-|
B|-------------------------------3-----3-----3-3-3-3-|
G|-----2-2---2-2----4-2-0-2------2-2---2-2---2-2-2-2-|
D|---------------------------0-0-----------0---------|
A|-2-2-----2-----2-----------------------------------|
E|---------------------------------------------------|
  don't keep me safe from nothing


Interlude:

  A chord diagramA majorA                           A chord diagramG MajorG
e|-----0-0---0-0----3-3-3-2---3----3-3---3-3---3-3-3-3--|
B|-2-2-2-2---2-2----3-3-3-3---3--3-3-3-3-3-3-3-3-3-3-3--|
G|-2-2-2-2-2-2-2-2--2-2-2-2---0--0-0-0-0-0-0-0-0-0-0-0--|
D|-2-2-----2-----2--2-2-2-2---0--0-----0-----0-----0-0--|
A|-0-0-----0-----0------------2--------------------2----|
E|----------------------------3-------------------------|

  A chord diagramD MajorD
e|-2---2-2---2-2----3-2-0-2-------2-2---2-2---3-3-3-2--|
B|-3-3-3-3---3-3----3-3-3-3---3---3-3-3-3-3---3-3-3-3--|
G|-2-2-2-2-2-2-2-2--2-2-2-2---2-2-2-2-2-2-2-2-2-2-2-2--|
D|-0-------0-----0------------0-0-----0-----0----------|
A|-----------------------------------------------------|
E|-----------------------------------------------------|


Outro:

   A chord diagramAsus4Asus4   A chord diagramG MajorG   A chord diagramD MajorD   A chord diagramBm7Bm7
e|-0-------3---2----0-----|
B|-3-------3---3----3-----|
G|-2-------0---2----2-----|  \use these chord shapes and strum
D|-2-------0---0----0-----|
A|-0-------2--------2-----|
E|---------3--------------|


A chord diagramAsus4Asus4                 A chord diagramG MajorG               A chord diagramAsus4Asus4
the gift she sends to me a solitary way
                     A chord diagramG MajorG
and wings will be my arms
                   A chord diagramBm7Bm7  A chord diagramAsus4Asus4   A chord diagramG MajorG
wings will be my legs
A chord diagramG MajorG           A chord diagramBm7Bm7  A chord diagramAsus4Asus4
Blackwing
A chord diagramG MajorG           A chord diagramBm7Bm7  A chord diagramAsus4Asus4
Blackwing
A chord diagramG MajorG           A chord diagramBm7Bm7  A chord diagramAsus4Asus4
Blackwing
A chord diagramG MajorG           A chord diagramBm7Bm7  A chord diagramAsus4Asus4
Blackwing
A chord diagramG MajorG

↓ Add and view comments below ↓

What do you think about this song and these tabs?

Add your comments, questions, rant or a thumbs up below.

Almost there ...

Sign in to get your own page with links to favourite songs and more. You are just one click away...

Login with Facebook Login with Google