Guitar Tabs Explorer
Seona Dancing bass tabs for Bitter heart

Bitter Heart bass tab


Be the first to rate


Bassm99Author: Bassm99

Bitter Heart bass tab by Seona Dancing

`Bitter Heart` from the single `Bitter Heart` (1983). Written by Gervais/Macrae.

Bass tabs

Print
  • Tuning: Standard tuning
  • Difficulty: Novice

Tabbed by: bassm99
E-mail: alanmatthews1966@yahoo.co.uk

Tuning: E, A, D, G

Intro:

G|--------------------------------------------------------------------------|
D|-----------5----------------------5---------------------------------------|
A|--5--8--5-----5-(x1)--8--5--8--5-----5-(x18)------------------------------|
E|--------------------------------------------------------------------------|

Verse:

G|--------------------------------------------------------------------------|
D|--------------5-----------------------------------------------------------|
A|--8--5--8--5-----5-(x15)--8--5--8--5---5-(x1)-----------------------------|
E|--------------------------------------------------------------------------|

Bass Stops: (1:06 - 1:12)

Chorus:

G|--------------------------------------------------------------------------|
D|--------------------------------------------------------------------------|
A|--5--7----------1--3----------5--7----------1--3--------------------------|
E|--------1-(x1)--------1-(x4)--------1-(x4)--------1-(x3)------------------|

G|--------------------------------------------------------------------------|
D|------------------5-------------------------------------------------------|
A|--1--3---5--8--5-----5-(x1)-----------------------------------------------|
E|--------------------------------------------------------------------------|

Repeat Verse:

Bass Stops: (2:09 - 2:12)

Chorus:

G|--------------------------------------------------------------------------|
D|--------------------------------------------------------------------------|
A|--5--7----------1--3----------5--7----------1--3--------------------------|
E|--------1-(x2)--------1-(x4)--------1-(x4)--------1-(x3)------------------|

G|--------------------------------------------------------------------------|
D|------------------5-------------------------------------------------------|
A|--1--3---5--8--5-----5-(x1)-----------------------------------------------|
E|--------------------------------------------------------------------------|

Bridge:

G|--------------------------------------------------------------------------|
D|--------------5-----------------------5-(x1)------------------------------|
A|--8--5--8--5-----5-(x15)--8--5--8--5--------------------------------------|
E|--------------------------------------------------------------------------|

Chorus:

G|--------------------------------------------------------------------------|
D|--------------------------------------------------------------------------|
A|--5--7----------1--3----------5--7----------1--3--------------------------|
E|--------1-(x2)--------1-(x4)--------1-(x4)--------1-(x3)------------------|

G|--------------------------------------------------------------------------|
D|------------------5-------------------------------------------------------|
A|--1--3---5--8--5-----5-(x1)-----------------------------------------------|
E|--------------------------------------------------------------------------|

Outro: (Play 7 Times) (Fades Out)

G|--------------------------------------------------------------------------|
D|--------------5-----------------------------------------------------------|
A|--8--5--8--5-----5--------------------------------------------------------|
E|--------------------------------------------------------------------------|

Comment this song and these bass tabs

Do you have corrections, comments on the bass tabs, thoughts about the song or a message to the author? Write them below.