Log in

One click and you are in

Login with Facebook Login with Google

Why sign up and log in

Guitar Tabs Explorer
Seigmen guitar tabs for Simone

Guitar tabs with lyrics

-----------------------------------------------------------------------------
			     Simone - Seigmen
-----------------------------------------------------------------------------

Tabbed by: Robert I.

Intro (clean):

X4
e|--------------------------------------------------------------------------|
B|--------------------------------------------------------------------------|
G|---------12---------------12---------------13---------------13------------|
D|------14----14---------14----14---------15----15---------15----15---------|
A|---13----------13---13----------13---13----------13---13----------13------|
E|-0----------------0----------------0----------------0---------------------|


e|--------------------------------------------------------------------------|
B|-------8-----------8------------10-------------10-10--9-------------------|
G|-----9---9-------9---9--------9----9---------9-----9--8-------------------|
D|---7-------7---7-------7---10--------10---10------10--9-------------------|
A|-0-----------0-----------0--------------0---------------------------------|
E|--------------------------------------------------------------------------|


e|--------------------------------------------------------------------------|
B|-------8-----------8------------------------------------------------------|
G|-----7---7-------7---7----------------------------------------------------|
D|---8-------8---8-------8--------------------------------------------------|
A|-0-----------0------------------------------------------------------------|
E|--------------------------------------------------------------------------|

X2
e|--------------------------------------------------------------------------|
B|-------5-----------5-----------5------------5-----------------------------|
G|-----8---8-------8---8-------8---8--------8---8---------------------------|
D|---7-------7---7-------7---7-------7----7-------7-------------------------|
A|-0-----------0-----------0-----------0------------------------------------|
E|--------------------------------------------------------------------------|

Opening riff (w/ distortion):

X3
e|--------------------------------------------------------------------------|
B|--------------------------------------------------------------------------|
G|--9--9--9--9--9--9--9--7--7--7--9--9-10-10-10-10-10-10-10-10-10-10—10-10--|
D|--------------------------------------------------------------------------|
A|--7--7--7--7--7--7--7--5--5--5--7--7--8--8--8--8--8--8--8--8--8--8--8--8--|
E|-(0)(0)(0)(0)(0)(0)(0)(0)(0)(0)(0)(0)(0)(0)(0)(0)(0)(0)(0)(0)(0)(0)(0)(0)-|


Then the last time (note variation on the end):

e|--------------------------------------------------------------------------|
B|--------------------------------------------------------------------------|
G|--9--9--9--9--9--9--9--7--7--7--9--9-10-10-10-10-10-10-10-10-10-10—12-12--|
D|--------------------------------------------------------------------------|
A|--7--7--7--7--7--7--7--5--5--5--7--7--8--8--8--8--8--8--8--8--8--8--8--8--|
E|-(0)(0)(0)(0)(0)(0)(0)(0)(0)(0)(0)(0)(0)(0)(0)(0)(0)(0)(0)(0)(0)(0)(0)(0)-|


Then switch to A:

X2
e|--------------------------------------------------------------------------|
B|--------------------------------------------------------------------------|
G|--9--9--9--9--9--9--9--7--7--7--9--9-10-10-10-10-10-10-10-10-10-10-10-10--|
D|--7--7--7--7--7--7--7--5--5--5--7--7--8--8--8--8--8--8--8--8--8--8--8--8--|
A|-(0)(0)(0)(0)(0)(0)(0)(0)(0)(0)(0)(0)(0)(0)(0)(0)(0)(0)(0)(0)(0)(0)(0)(0)-|
E|--------------------------------------------------------------------------|


Then back to E, playing the D-string as well:

X2
e|--------------------------------------------------------------------------|
B|--------------------------------------------------------------------------|
G|--9--9--9--9--9--9--9--7--7--7--9--9-10-10-10-10-10-10-10-10-10-10—10-10--|
D|--9--9--9--9--9--9--9--7--7--7--9--9-10-10-10-10-10-10-10-10-10-10-10-10--|
A|--7--7--7--7--7--7--7--5--5--5--7--7--8--8--8--8--8--8--8--8--8--8--8--8--|
E|-(0)(0)(0)(0)(0)(0)(0)(0)(0)(0)(0)(0)(0)(0)(0)(0)(0)(0)(0)(0)(0)(0)(0)(0)-|


Main verse:

   “Siiiiiiiiiiiiiiimone, jeg…”
e|--------------------------------------------------------------------------|
B|--------------------------------------------------------------------------|
G|-------------------9------------------------------------------------------|
D|-2----(2)-(2)-(2)--7--(2)-(2)-(2)-----------------------------------------|
A|-2----(2)-(2)-(2)--7--(2)-(2)-(2)-----------------------------------------|
E|-0----(0)-(0)-(0)--0--(0)-(0)-(0)-----------------------------------------|

  “…puster…”					“Ta mitt…”
e|--------------------------------------------------------------------------|
B|--------------------------------------------------------------------------|
G|--------------------------------------------------------------------------|
D|-(3)(3)(3)(3)-3-(3)(3)(3)-3-(3)(3)(3)-3-(3)(3)(3)-3-3---------------------|
A|-(3)(3)(3)(3)-3-(3)(3)(3)-3-(3)(3)(3)-3-(3)(3)(3)-3-3---------------------|
E|-(1)(1)(1)(1)-1-(1)(1)(1)-1-(1)(1)(1)-1-(1)(1)(1)-1-1---------------------|


Then comes a little bridge where you just play the same as the intro, only as chords:

e|-------|	 e|-------|
B|-------|	 B|-------|
G|--12---|	 G|--13---|
D|--14---|	 D|--15---|
A|--13---|	 A|--13---|
E|---0---|	 E|---0---|


Chorus:

e|--------------------------------------------------------------------------|
B|--------------------------------------------------------------------------|
G|--------3-3-3-----------------------3-3-3---------------------------------|
D|-2-2-2--3-3-3--2-2-2--5-5-5--2-2-2--3-3-3--2-2-2--6-6-6-------------------|
A|-2-2-2--1-1-1--2-2-2--5-5-5--2-2-2--1-1-1--2-2-2--6-6-6-------------------|
E|-0-0-0---------0-0-0--3-3-3--0-0-0---------0-0-0--4-4-4-------------------|


2nd bridge goes something like this:

e|--------------------------------------------------------------------------|
B|--------------------------------------------------------------------------|
G|----------------1h-2p-1---------------------------------------------------|
D|-------------------------------------1h-2p-1------------------------------|
A|-----2---1-2-1-------------2---1-2-1--------------------------------------|
E|-0---------------------0--------------------------------------------------|

e|--------------------------------------------------------------------------|
B|--------------------------------------------------------------------------|
G|--------------------------------------------------------------------------|
D|--------------------------------------------------------------------------|
A|-----2---0-2-0--1b-----2--1-2-1-------------------------------------------|
E|-0-----------------0--------------3---2-----------------------------------|

e|--------------------------------------------------------------------------|
B|--------------------------------------------------------------------------|
G|--------------------------------------------------------------------------|
D|-(2)(2)(2)-2-(2)-(2)(2)(2)-2-(2)-(2)(2)(2)-2-(2)-(2)(2)(2)-2-(2)----------|
A|-(2)(2)(2)-2-(2)-(2)(2)(2)-2-(2)-(2)(2)(2)-2-(2)-(2)(2)(2)-2-(2)----------|
E|-(0)(0)(0)-0-(0)-(0)(0)(0)-0-(0)-(0)(0)(0)-0-(0)-(0)(0)(0)-0-(0)----------|

e|--------------------------------------------------------------------------|
B|--------------------------------------------------------------------------|
G|--------------------------------------------------------------------------|
D|-(2)(2)(2)-2-2-(2)(2)(2)-2-2-(2)(2)(2)-2-2-(2)(2)(2)-2-2------------------|
A|-(2)(2)(2)-2-2-(2)(2)(2)-2-2-(2)(2)(2)-2-2-(2)(2)(2)-2-2------------------|
E|-(0)(0)(0)-0-0-(0)(0)(0)-0-0-(0)(0)(0)-0-0-(0)(0)(0)-0-0------------------|


Then comes the solo,which I’m not quite sure how to tab, so I’ll just explain in words:
	You use the A chord diagramA majorA and A chord diagramG MajorG strings, muting the others like this:

e|---x---|
B|---x---|
G|--17---|
D|---x---|
A|--15---|
E|---x---|

Then you hammer back and forth over all the strings as fast as you can while using a
Listen to the song and you’ll understand.
	Anyway, use this techique on the following four positions:

e|---x--|  |---x--|  |---x--|  |---x--|
B|---x--|  |---x--|  |---x--|  |---x--|
G|--17--|  |--19--|  |--20--|  |--21--|
D|---x--|  |---x--|  |---x--|  |---x--|
A|--15--|  |--17--|  |--18--|  |--19--|
E|---x--|  |---x--|  |---x--|  |---x--|

And with that, the song ends. Throughout the song there are subtle feedback overtones
are impossible to tab (Sverre is a genius when it comes to these techniques), but other
that it’s pretty simple. Enjoy, and remember:

Seigmen kicks ass!


| /  slide up
| \  slide down
| h  hammer-on
| p  pull-off
| ~  vibrato
| +  harmonic
| x  Mute note

Almost there ...

Sign in to get your own page with links to favourite songs and more. You are just one click away...

Login with Facebook Login with Google