Log in

One click and you are in

Login with Facebook Login with Google

Why sign up and log in

Guitar Tabs Explorer
Seigmen guitar tabs for Colleseum

Guitar tabs

(intro)


-----------------------------------------------------------|
-----------------------------------------------------------|
-----------------------------------------------------------|    intro1
-----------------------------------------------------------|
-----------------------------------------------------------|
--0--8h10--0--10h12--0-7--0--8h10--0--10h12--0--6----------|

-----------------------------------------------------------------------------|
-----------------------------------------------------------------------------|
-----------------------------------------------------------------------------|   intro2
-----------------------------------------------------------------------------|
-----------------------------------------------------------------------------|
--0--7h8--0--8h10--0--10/12--0--7h8--8h10--0--12/10--0-7--0-5--0-3-----------|
--------------------------------------------------------------------------------|
--------------------------------------------------------------------------------|
--------------------------------------------------------------------------------|   intro3
---------------------------------------------------------------------------3--0-|
---------------------------------------------------------------------------3--0-|
--0--7h8--0--8h10--0--10/12--0--7h8--8h10--0--12/10--0-7--0-5--0-3--0-----------|


++++++++++++++++++++++++++++++++++++++++++++++++++++++++++++++++++++++++++++++++++++++++++


(hard part)
------------------------------------------------------------------------------------------|
------------------------------------------------------------------------------------------|
------------------------------------------------------------------------------------------|
-------------------------------------------------------------------------------------  6--|
------------------------------------------------------------------------------------------|
--5(x12)--8(x4)--7(x4)--9(x12)--8(x12)--10(x4)--9(x4)--8(x4)--9(x4)--1--------------------|0(x4)

++++++++++++++++++++++++++++++++++++++++++++++++++++++++++++++++++++++++++++++++++++++++++


(x part)
-------------------------------------|
-------------------------------------|
-------------------------------------|
-------------------------------------|
-------------------------------------|
--2--xx--x-2--xx--x-2--xx-x-2--3-----|


+++++++++++++++++++++++++++++++++++++++++++++++++++++++++++++++++++++++++++++++++++++++++++++


(small part)
----------------------------------------------------------------------|
----------------------------------------------------------------------|
----------------------------------------------------------------------|
----------------------------------------------------------------------|
----------------------------------------------------------------------|
---7h9--9--9h8--8--8h10--10--10h9--9--9h11--11--11h10--10--12h14--14--|

colesseum
intro1 (x1)
intro2 (x1)
intro1 (x1)
intro3 (x1)
hard part  (x6)
x part (x6)
small part (x6) (positive this part is wrong HELP!!)
no guitars
hard part(x4)
x part (x14)

Almost there ...

Sign in to get your own page with links to favourite songs and more. You are just one click away...

Login with Facebook Login with Google