Log in

One click and you are in

Login with Facebook Login with Google

Why sign up and log in

Guitar Tabs Explorer
Bob Seger bass tabs for Old time rock n roll

Bass tabs

OLD TIME ROCK AND ROLL By Bob Seger

BASS Guitar


VERSE 1

G|---------------|---------------|---------------|---------------|
D|---------------|---------------|---------------|---------------|
A|---------------|---------------|2-2-2-2-2-2-2-2|2-2-2-2-2-2-2-2|
E|2-2-2-2-2-2-2-2|2-2-2-2-2-2-2-2|---------------|---------------|

G|---------------|---------------|---------------|---------------|
D|---------------|---------------|---------------|---------------|
A|4-4-4-4-4-4-4-4|4-4-4-4-4-4-4-4|---------------|---------------|
E|---------------|---------------|2-2-2-2-2-2-2-2|2-2-2-2-2-2-2-2|

G|---------------|---------------|---------------|---------------|
D|---------------|---------------|---------------|---------------|
A|---------------|---------------|2-2-2-2-2-2-2-2|2-2-2-2-2-2-2-2|
E|2-2-2-2-2-2-2-2|2-2-2-2-2-2-2-2|---------------|---------------|

G|---------------|---------------|---------------|---------------|
D|---------------|---------------|---------------|---------------|
A|4-4-4-4-4-4-4-4|4-4-4-4-4-4-4-4|---------------|4-4-4-4-4-4-4-4|
E|---------------|---------------|2-2-2-2-2-2-2-2|---------------|


CHORUS

G|---------------|---------------|---------------|---------------|
D|---------------|---------------|---------------|---------------|
A|---------------|---------------|2-2-2-2-2-2-2-2|2-2-2-2-2-2-2-2|
E|2-2-2-2-2-2-2-2|2-2-2-2-2-2-2-2|---------------|---------------|

G|---------------|---------------|---------------|---------------|
D|---------------|---------------|---------------|---------------|
A|4-4-4-4-4-4-4-4|4-4-4-4-4-4-4-4|---------------|4-4-4-4-4-4-4-4|
E|---------------|---------------|2-2-2-2-2-2-2-2|---------------|

GUITAR SOLO - SAME AS CHORUS

Verse 2 - Same as Verse 1

REPEAT CHORUS

SAX SOLO

G|-----------------|-----------------|------------------|------------------|
D|4-----4----------|4-----4----------|-6-4-------6--4---|-6-4-------6--4---|
A|--6-4----6-4-----|--6-4----6-4-----|--------------- 2-|--------------- 2-|
E|-----------------|-----------------|------------------|------------------|

G|----------------|----------------|----------------|------------------|
D|-6-4-6-8--------|----------------|-4-------4------|------------------|
A|-----------6-4--|-4-4-4-4-4-4-4-4|---6-4-6---6-4--|6-4---------------|
E|----------------|----------------|----------------|------------------|

G|-----------------|-----------------|----------------|----------------|
D|-----------------|-----------------|----------------|----------------|
A|-----------------|-----------------|----------------|----------------|
E|-----------------|-----------------|----------------|----------------|


CHORUS

G|-----------------|-----------------|------------------|-----------------|
D|-4-4--------4----|-4-----4---------|-6--4--6--4-------|-6--4--6--4------|
A|------6-4-6---6-4|---6-4-----6--4--|---------------2--|---------------2-|
E|-----------------|-----------------|------------------|-----------------|

G|-----------------|----------------|----------------|------------------|
D|6-4-6-8----------|----------------|-4-------4------|------------------|
A|----------6-4----|-4-4-4-4-4-4-4-4|---6-4-6---6-4--|6-4---------------|
E|-----------------|----------------|----------------|------------------|

G|----|----|----|----|
D|----|----|----|----|
A|----|----|----|----|
E|----|----|----|----|

A CAPELLA CHORUS

REPEAT CHORUS AND OUT

Almost there ...

Sign in to get your own page with links to favourite songs and more. You are just one click away...

Login with Facebook Login with Google