Search tabs and chords

Search for song, artist or band

Log in

One click and you are in

Login with Facebook Login with Google

Why sign up and log in

Guitar Tabs Explorer
Bob Seger guitar tabs for Her strut (Ver. 2)

Guitar tabs with lyrics

  • Difficulty: Intermediate
Her Strut
Bob Seger

Intro   (recording in A chord diagramEb MajorEb )

         E--0---------------0--------|
         B--0---------------0--------|
         G--4---------------4--------|
         D--2--h2-h2-h2-h2--2--------|
         A--2---------------2--------|
         E--0---------------0--------|
        (Pick up)
                              Yeah
         E-----------------------------------------------------|
         B-----------------------------------------------------|
         G-----------------------------------------------------|
         D-----------------------------------------------------|
         A-------7----------5----------4---4---4---5---2-------|
         E---3-4---0-0--3-4---0-0-3--4---0---0---0--0----0-----|

         E--------------------------------------------------------|
         B--------------------------------------------------------|
         G--------------------------------------------------------|
         D--------------------------------------------------------|
         A-------7----------5----------4---4---4---5---2--------0-| A chord diagramE MajorE
         E---3-4---0-0--3-4---0-0-3--4---0---0---0--0----0-0--3---|



A chord diagramE MajorE
She`s totally committed

To major independence

But she`s a lady through and through

She gives them quite a battle

E------------------------------------|
B------------------------------------|
G------------------------------------|
D------------------------------------|
A-------5-------4--4--4--5--2--------|
E---3-4---0-3-4--0--0--0--0--0-0-----|



All that they can handle

E-----------------------------|
B-----------------------------|
G-----------------------------|
D-----------------------------|
A----4---4---4---5-----2------|
E--4---0---0---0---0-0---0-0--|




She`ll bruise some   She`ll hurt some too

      E-----------------------------|
      B-----------------------------|
      G-----------------------------|
      D-----------------------------|
      A----4---4---4---5-----2------|
      E--4---0---0---0---0-0---0-0--|



     A chord diagramA majorA     A chord diagramC majorC                         A chord diagramE MajorE      E-----------|
But  ohhh     they love to watch her strut  B-----------|
                                            G-----------|
                                            D-----------|
                                            A------0----|
                                            E--0-3---0--|


A chord diagramA majorA     A chord diagramC majorC                      A chord diagramBB
Ohhh     they do respect her but
     A chord diagramGbm7Gbm7              A chord diagramE MajorE
They love to watch her strut   mmmmmm

         E-----------------------------------------------------|
         B-----------------------------------------------------|
         G-----------------------------------------------------|
         D-----------------------------------------------------|
         A-------7----------5----------4---4---4---5---2-------|
         E---3-4---0-0--3-4---0-0-3--4---0---0---0--0----0--0--|

                             awww yeah   awwww

         EE----------------------------------------------------|
         B-----------------------------------------------------|
         G-----------------------------------------------------|
         D-----------------------------------------------------|
         A-------7----------5----------4---4---4---5---2-------|
         E---3-4---0-0--3-4---0-0-3--4---0---0---0--0----0--0--|



A chord diagramE MajorE
Sometimes they`ll want to leave her

Just give up and leave her

they would never play that scene

In spite of all her talkin`

Once she starts to walkin`

The lady will be all they ever dreamed

         E------------------------|
         B------------------------|
         G------------------------|
         D------------------------| A chord diagramE MajorE
         A-------7---------5------|
         E---3-4---0-0-3-4---0-0--|

A chord diagramA majorA     A chord diagramC majorC                         A chord diagramE MajorE
Ohhh     they love to watch her strut  E--------------|
                                       B--------------|
                                       G--------------|
                                       D--2h-2h-2h-2h-|
                                       A--------------|
                                       E--------------|


A chord diagramA majorA     A chord diagramC majorC                           A chord diagramB7B7
Ohhh     they`ll kill to make the cut
          A chord diagramGbm7Gbm7         A chord diagramE MajorE
They love to watch her strut ohhh



E-----------------------------------------------------|
B-----------------------------------------------------|
G-----------------------------------------------------|
D-----------------------------------------------------|
A-------7----------5----------4---4---4---5---2-------|
E---3-4---0-0--3-4---0-0-3--4---0---0---0--0----0--0--|

     awww yeah
E-----------------------------------------------------|
B-----------------------------------------------------|
G-----------------------------------------------------|
D-----------------------------------------------------|
A-------7----------5----------4---4---4---5---2-------|
E---3-4---0-0--3-4---0-0-3--4---0---0---0--0----0--0--|


         Yeah love to watch her

         E-----------------------------------------------------|
         B-----------------------------------------------------|
         G-----------------------------------------------------|
         D-----------------------------------------------------|
         A-------7----------5----------4---4---4---5---2-------|
         E---3-4---0-0--3-4---0-0-3--4---0---0---0--0----0--0--|



                                                   Watch her strut now

         E---------------------|
         B---------------------|
         G---------------------|
         D--------2---------2--|
         A--2--h4-----2--h4----|
         E---------------------|


         E--15--12----------------------------------------|
         B----------15--12--------------------------------|
         G------------------14--12------------------------|
         D--------------------------14--12----------------|
         A----------------------------------14--12--------|
         E-----------------------------------------15--12-|

         E----------------------------------------------------------------|
         B----------------------------14----------------------------------|
         G--14b--12p--14--12--14--12-----12--14--12b---------9---------9--|
         D--------------------------------------------9--11-----9--11-----|
         A----------------------------------------------------------------|
         E----------------------------------------------------------------|

         E--17b--15p--17--15-------------------------------------------------x--|
         B--------------------17b--15p--17--15-------------------------------0--|
         G--------------------------------------16--15--14--12---------------2--|
         D------------------------------------------------------14--13--12s--2--|
         A-------------------------------------------------------------------2--|
         E-------------------------------------------------------------------0--|
                                                                           A chord diagramA majorA
                                                                           Awwwww
A chord diagramC majorC                       A chord diagramE MajorE        A chord diagramG MajorG A chord diagramGbm7Gbm7  A chord diagramA majorA
they love to watch her    strut
A chord diagramA majorA     A chord diagramC majorC                      A chord diagramBB
ohhh     they do respect her but
     A chord diagramD MajorD                 A chord diagramE MajorE
They love to watch her strut

         E-----------------------------------------------------|
         B-----------------------------------------------------|
         G-----------------------------------------------------|
         D-----------------------------------------------------|
         A-------7----------5----------4---4---4---5---2-------|
         E---3-4---0-0--3-4---0-0-3--4---0---0---0--0----0--0--|


                 ohhh     awwww   alright     awwwhhh


         E-----------------------------------------------------|
         B-----------------------------------------------------|
         G-----------------------------------------------------|
         D-----------------------------------------------------|
         A-------7----------5----------4---4---4---5---2-------|
         E---3-4---0-0--3-4---0-0-3--4---0---0---0--0----0--0--|


    Love to strut              oooo       yeah

                                     oooohhh love to watch her strut

         E-----------------------------------------------------|
         B-----------------------------------------------------|
         G-----------------------------------------------------|
         D-----------------------------------------------------|
         A-------7----------5----------4---4---4---5---2-------|
         E---3-4---0-0--3-4---0-0-3--4---0---0---0--0----0--0--|


          love to watch her strut   alright


         E-----------------------------------------------------|
         B-----------------------------------------------------|
         G-----------------------------------------------------|
         D-----------------------------------------------------|
         A-------7----------5----------4---4---4---5---2-------|
         E---3-4---0-0--3-4---0-0-3--4---0---0---0--0----0--0--|



Yeahhhh strut  ummm

         E-----------------------------------------------------|
         B-----------------------------------------------------|
         G-----------------------------------------------------|
         D-----------------------------------------------------|
         A-------7----------5----------4---4---4---5---2-------|
         E---3-4---0-0--3-4---0-0-3--4---0---0---0--0----0--0--|

Let the lady strut

         E-----------------------------------------------------|
         B-----------------------------------------------------|
         G-----------------------------------------------------|
         D-----------------------------------------------------|
         A-------7----------5----------4---4---4---5---2-------|
         E---3-4---0-0--3-4---0-0-3--4---0---0---0--0----0--0--|

loves to watch her strut

         E-----------------------------------------------------|
         B-----------------------------------------------------|
         G-----------------------------------------------------|
         D-----------------------------------------------------|
         A-------7----------5----------4---4---4---5---2-------|
         E---3-4---0-0--3-4---0-0-3--4---0---0---0--0----0--0--|



Loves to watch her strut

         E-----------------------------------------------------|
         B-----------------------------------------------------|
         G-----------------------------------------------------|
         D-----------------------------------------------------|
         A-------7----------5----------4---4---4---5---2-------|
         E---3-4---0-0--3-4---0-0-3--4---0---0---0--0----0--0--|



( end on A chord diagramE MajorE chord)

Her Strut tab

Bob Seger guitar tabs for Her strut (Ver. 2) Her Strut is a song written by Bob Seger that was first released on his 1980 album Against the Wind. It was also released as the B-side of his single The Horizontal Bop. Its lyrics are accused of objectifying women, and the song was inspired by feminist icon Jane Fonda.

Other versions of Her Strut

Her strutTabs

Almost there ...

Sign in to get your own page with links to favourite songs and more. You are just one click away...

Login with Facebook Login with Google