Log in

One click and you are in

Login with Facebook Login with Google

Why sign up and log in

Guitar Tabs Explorer
Ty Segall bass tabs for Tall man skinny lady

Bass tabs

Tuning: Standard (E A D G)

Drum Intro:

G|----------------|----------------|----------------|----------------|
D|----------------|----------------|----------------|----------------|
A|----------------|----------------|----------------|----------------|
E|----------------|----------------|----------------|----------------|
Intro and verse:

G|----------------|----------------|----------------|----------------|
D|6---------3-3-3-|----------3-3-3-|6---------3-3-3-|----------3-3-3-|
A|-----6-6-6------|4----6-6-6------|-----6-6-6------|4----6-6-6------|x6
E|----------------|----------------|----------------|----------------|


Bridge:

G|----------------|----------------|----------------|----------------|
D|----------------|----------------|----------------|----------------|
A|----------------|----------------|----------------|----------------|x2
E|4----4-4-4-4----|4----4-4-4-4----|4----4-4-4-4----|4----4-4-4-4----|

Guitar solo and verse:

G|----------------|----------------|----------------|----------------|
D|6---------3-3-3-|----------3-3-3-|6---------3-3-3-|----------3-3-3-|
A|-----6-6-6------|4----6-6-6------|-----6-6-6------|4----6-6-6------|x5
E|----------------|----------------|----------------|----------------|


Bridge:

G|----------------|----------------|----------------|----------------|
D|----------------|----------------|----------------|----------------|
A|----------------|----------------|----------------|----------------|x2
E|4----4-4-4-4----|4----4-4-4-4----|4----4-4-4-4----|4----4-4-4-4----|

Guitar solo and outro:

G|----------------|----------------|----------------|-------------------|
D|6---------3-3-3-|----------3-3-3-|6---------3-3-3-|-----------3-3-1/3-|
A|-----6-6-6------|4----6-6-6------|-----6-6-6------|4----6-6-6---------|x2
E|----------------|----------------|----------------|-------------------|

G|----------------|----------------|----------------|----------------|
D|6---------3-3-3-|----------3-3-3-|----------3-3-3-|----------3-3-3-|
A|-----6-6-6------|4----6-6-6------|4----6-6-6------|4----6-6-6------|
E|----------------|----------------|----------------|----------------|

G|----------------|----------------|----------------|----------------|
D|----------3-3-3-|6---------3-3-3-|----------3-3-3-|----------3-3-3-|
A|4----6-6-6------|-----6-6-6------|4----6-6-6------|4----6-6-6------|
E|----------------|----------------|----------------|----------------|

G|----------------|----------------|----------------|----------------|
D|6---------3-3-3-|----------3-3-3-|----------3-3-3-|----------3-3-3-|
A|-----6-6-6------|4----6-6-6------|4----6-6-6------|4----6-6-6------|
E|----------------|----------------|----------------|----------------|

G|----------------|----------------|----------------|-------------------|
D|6---------3-3-3-|----------3-3-3-|----------3-3-3-|-----------3-3-1/3-|
A|-----6-6-6------|4----6-6-6------|4----6-6-6------|4----6-6-6---------|
E|----------------|----------------|----------------|-------------------|

G|----------------|----------------|----------------|-----------------|
D|6---------3-3-3-|----------3-3-3-|----------3-3-3-|-----------1/3---|
A|-----6-6-6------|4----6-6-6------|4----6-6-6------|4----6-6-6-------|
E|----------------|----------------|----------------|-----------------|

G|----------------|----------------|----------------|----------------|
D|----------3-3-3-|----------3-3-3-|----------3-3-3-|----------3-3-3-|
A|4----6-6-6------|4----6-6-6------|4----6-6-6------|4----6-6-6------|
E|----------------|----------------|----------------|----------------|

G|----------------|----------------|----------------|-------------------|
D|----------3-3-3-|----------3-3-3-|----------3-3-3-|-----------3-3-1/3-|
A|4----6-6-6------|4----6-6-6------|4----6-6-6------|4----6-6-6---------|
E|----------------|----------------|----------------|-------------------|

Repeat as song fades out:

G|----------------|
D|----------3-3-3-|
A|4----6-6-6------|
E|----------------|

Almost there ...

Sign in to get your own page with links to favourite songs and more. You are just one click away...

Login with Facebook Login with Google