Log in

One click and you are in

Login with Facebook Login with Google

Why sign up and log in

Guitar Tabs Explorer
Seether tabs for The gift

Guitar tabs

"Gift"
Seether
Karma and Effect
Standard tuning, 1/2 step down

/ - slide
b - bend
* - let note ring

The parts are all there, it isn't very hard to figure out the order.

eb-----------------------------------------------
Bb-------1---------------------------------------
Gb---2-----2---------4-----------2---2-0---------
Db-----2-----2---5-----5-----3-----------3---3-2-
Ab-0---------------5-----5-----3-----------------
Eb-------------3-----------1---------------1-----

-------------------------------------------
-------1---------------------------------5-
---2-----2---------4-----------2---2-0-----
-----2-----2---5-----5-----3-----------3---
-0---------------5-----5-----3-------------
-------------3-----------1-----------------

-------------------
-12/8---10/5---5/8-
-------------------
-------------------
-------------------
-------------------

 A chord diagramG+G   A chord diagramA minorAm  A chord diagramFF (all sound 1/2 step lower than written)
-3---0---1-
-3---1---1-
-4---2---2-
-5---2---3-
-5---0---3-
-3-------1-

-8-------------8---(1step)--
------8-------------8b*-----
---10---10-9-----10---------
----------------------------
----------------------------
----------------------------

 A chord diagramC5C5  A chord diagramG5G5  A chord diagramF5F5  A chord diagramA5A5  A chord diagramG5G5  A chord diagramF5F5
-----------------------
-----------------------
-5-----------2---------
-5---5---3---2---5---3-
-3---5---3---0---5---3-
-----3---1-------3---1-

-8-----------------------------
------8------------------------ x2
---10---10-9--9/10-9-7----7-8b-
-----------------------10------
-------------------------------
-------------------------------

ⓘ Guitar tab for 'The Gift' by Seether, Saron Gas, an alternative metal band formed in 1999 from Pretoria, South Africa

Other versions of The Gift

The gift (Ver. 2)Tabs
The gift (acoustic)Tabs

Almost there ...

Sign in to get your own page with links to favourite songs and more. You are just one click away...

Login with Facebook Login with Google