Log in

One click and you are in

Login with Facebook Login with Google

Why sign up and log in

Guitar Tabs Explorer
Seether tabs for The gift (acoustic)

Guitar tabs

Album: Karma & Affect

/ - slide

b - bend


                                                                 A chord diagramA minorAm
E---------------|----------------|-----------------------|      |---|
B---------------|----------------|-----------------------|      |-1-|
G-------5-------|--------4-------|------2--2-0-----0-----|(2X)  |-2-|
D----7----7-----|----5-----5-----|----3-------3-----3----|      |-2-|
A--7---7-----7--|--5---5------5--|--3-----------3--------|      |---|
E---------------|----------------|-----------------------|      |---|

E-------7-----|-------5-------------|----------------|
B---------8b--|---------5-5/8-10-8--|----------------|
G-------------|---------------------|--9-7-5-0-7-5---|
D----9--------|----7----------------|----------------|
A--7----------|--5------------------|----------------|
E-------------|---------------------|----------------|

E-------7-----|-------5-------------------|
B---------8b--|---------5-6/8-10-8--8/10--|
G-------------|---------------------------|
D----9--------|----7----------------------|
A--7----------|--5------------------------|
E-------------|---------------------------|

            A chord diagramA minorAm  A chord diagramG+G   A chord diagramFF              A chord diagramC5C5  A chord diagramG5G5  A chord diagramF5F5  A chord diagramA5A5

Chorus:  A chord diagramE MajorE|---|-3-|-1-|  Verse:  |---|---|---|---|
         A chord diagramBB|-1-|-0-|-1-|          |---|---|---|---|
         A chord diagramG+G|-2-|-0-|-2-|          |-5-|---|---|-2-|
         A chord diagramD MajorD|-2-|-0-|-3-|          |-5-|-5-|-3-|-2-|
         A chord diagramA augmentedA|---|-2-|-3-|          |-3-|-5-|-3-|-0-|
         A chord diagramE MajorE|---|-3-|-1-|          |---|-3-|-1-|---|


A chord diagramE MajorE|--8--------------------------------|
A chord diagramBB|--------8--------------------------|
A chord diagramG+G|----10----10-9-9/10-9-7----7/9-----|(2x)
A chord diagramD MajorD|------------------------10---------|
A chord diagramA augmentedA|-----------------------------------|
A chord diagramE MajorE|-----------------------------------|

ⓘ Guitar tab for 'The Gift (acoustic)' by Seether, Saron Gas, an alternative metal band formed in 1999 from Pretoria, South Africa

Other versions of The Gift

The giftTabs
The gift (Ver. 2)Tabs

Almost there ...

Sign in to get your own page with links to favourite songs and more. You are just one click away...

Login with Facebook Login with Google