Log in

One click and you are in

Login with Facebook Login with Google

Why sign up and log in

Guitar Tabs Explorer
Seether tabs for The gift (Ver. 2)

Guitar tabs

Intro:
                                                            A chord diagramA minorAm
 E-------------|-------------|-----------------------|	   |---|
 B------1------|------0------|-----------------------|     |-1-|
 G----2---2----|----0---0----|------2--2-0-----0-----|(2X) |-2-|
 D--2-------2--|--0-------0--|----3--------3-----3---|     |-2-|
 A-------------|-------------|--3------------3-------|     |---|
 E-------------|-------------|-----------------------|     |---|


 E-------7-----|-------5----------------------|
 B---------8---|---------5-5/8-8--------------|
 G-------------|-----------------9-7-5-0-7-5--|
 D----9--------|----7-------------------------|
 A--7----------|--5---------------------------|
 E-------------|------------------------------|

            A chord diagramA minorAm      A chord diagramG+G       A chord diagramF minorFm
 Chords:  XX2210  320001  133211

ⓘ This is the 2nd version of guitar tab for 'The Gift' by Seether, Saron Gas, an alternative metal band formed in 1999 from Pretoria, South Africa

Other versions of The Gift

The giftTabs
The gift (acoustic)Tabs

Almost there ...

Sign in to get your own page with links to favourite songs and more. You are just one click away...

Login with Facebook Login with Google