Log in

One click and you are in

Login with Facebook Login with Google

Why sign up and log in

Guitar Tabs Explorer
Seether tabs for Sympathetic

Guitar tabs

Album:Disclaimer
Tabbed by:Kerkie
 
Shaun uses an overdub for the intro. I'm pretty sure about the intro and

chorus,
but the verse is probably wrong.Send all corrections to
kerkievan@hotmail.com.
Send all hatemail/death threats to billgates@microsoft.com
 
Play this:
e-----0-------0--------0-------0----
B---3---3---3---3----3---3---3---3--
G-2-------2-------2-------2--------2
D-----------------------------------
A-----------------------------------
D-----------------------------------
 

and then over it this:
e--------------------------------------------------------------
B----------------------2----------------0----------------0-----
G---------2----------------2----------------2-----------------2
D-----0-----------0-----------------0----------------0---------
A-0------------------------------------------------------------
D--------------------------------------------------------------
 


Verse:
e------0--0-0--------6--6-6---------4--4-4
B------3--3-3--------6--6-6---------4--4-4
G------2--2-2-----------------------------
B-----------------------------------------
A-----------------------------------------
D-----------------------------------------
And my words will be here when I'm gone...
 


Chorus:
e--------------------------------------------------
B--------------------------------------------------
G-------2-----------4------------------------------
D-------2-----------4--------------5--------------5
A-------0-----------2--------------5--------------5
D----------------------------------5--------------5
And I'm sympathetic, never letting on I feel the way...
 


Bridge:
e-----------------------------------------
B-----------------------------------------
G-----------------------------------------
D-4-----------2------------7-------------2
A-4-----------2------------7-------------2
D-2-----------0------------5-------------0
The same old feelings...
ⓘ Guitar tab for 'Sympathetic' by Seether, Saron Gas, an alternative metal band formed in 1999 from Pretoria, South Africa

Almost there ...

Sign in to get your own page with links to favourite songs and more. You are just one click away...

Login with Facebook Login with Google