Log in

One click and you are in

Login with Facebook Login with Google

Why sign up and log in

Guitar Tabs Explorer
Seether bass tabs for Remedy

Bass tabs with lyrics

  • Tuning: Drop D
Track 2 from Karma and Effect - Remedy


Tuning - 1 Step Down (Drop D)

     Intro
G |---------------------|
D |---------------------| X8
A |---------------------|
D |--2---0--2--2--0--5--|

              Verse
G |--------------------------|--------------------------|
D |--------------------------|--------------------------| X7
A |--------------------------|--------------------------|
D |--2--2--2--2--0--0--0--0--|--2--2--2--2--5--5--5--5--|

G |--------------------------|--------------------------|
D |--------------------------|--------------------------|
A |--------------------------|--------------------------|
D |--2--2--2--2--0--0--0--0--|--2--2--2--2--2--2--2--2--|

         Pre Verse
G |--------------------------|--------------|
D |--------------------------|--------------|
A |--0--0--0--0--0--0--0--0--|--------------|
D |--------------------------|--3--3--3--3--|

    Chorus - X2
G |----------------------|
D |----------------------| X2
A |----------------------|
D |--2----0--2--2--0--5--|

G |----------------------|----------------------|
D |----------------------|----------------------|
A |----------------------|----------------------|
D |--2----0--2--2--0--5--|--7----7--7--5--5--5--|

           Verse II
G |--------------------------|--------------------------|
D |--------------------------|--------------------------| X7
A |--------------------------|--------------------------|
D |--2--2--2--2--0--0--0--0--|--2--2--2--2--5--5--5--5--|

G |--------------------------|--------------------------|
D |--------------------------|--------------------------|
A |--------------------------|--------------------------|
D |--2--2--2--2--0--0--0--0--|--2--2--2--2--2--2--2--2--|

         Pre Verse
G |--------------------------|--------------|
D |--------------------------|--------------|
A |--0--0--0--0--0--0--0--0--|--------------|
D |--------------------------|--3--3--3--3--|

    Chorus II - X4
G |----------------------|
D |----------------------| X2
A |----------------------|
D |--2----0--2--2--0--5--|

G |----------------------|----------------------|
D |----------------------|----------------------|
A |----------------------|----------------------|
D |--2----0--2--2--0--5--|--7----7--7--5--5--5--|

             Bridge
G |--------------------------|-----------------|-----------|
D |--------------------------|-----------------|-----------| X4
A |--3--3--3--3--3--3--3--3--|--5--5--5--5--5--|-----------|
D |--------------------------|-----------------|--3--3--3--|

Rest for a Moment

     Solo - X2
G |----------------------|
D |----------------------| X2
A |----------------------|
D |--2----0--2--2--0--5--|

G |----------------------|----------------------|
D |----------------------|----------------------|
A |----------------------|----------------------|
D |--2----0--2--2--0--5--|--7----7--7--5--5--5--|

   Final Chorus - X2
G |----------------------|
D |----------------------| X2
A |----------------------|
D |--2----0--2--2--0--5--|

G |----------------------|----------------------|
D |----------------------|----------------------|
A |----------------------|----------------------|
D |--2----0--2--2--0--5--|--7----7--7--5--5--5--|

       Outro
G |--------------------------|
D |--------------------------| X2
A |--------------------------|
D |--2--2--2--0--2--2--0--5--|

G |--------------------------|--------------------------|
D |--------------------------|--------------------------|
A |--------------------------|--------------------------|
D |--2--2--2--0--2--2--0--5--|--7--7--7--7--7--5--5--5--|

G |--------------------------|
D |--------------------------| X2
A |--------------------------|
D |--2--2--2--0--2--2--0--5--|

G |--------------------------|-----------------------|
D |--------------------------|-----------------------|
A |--------------------------|-----------------------|
D |--2--2--2--0--2--2--0--5--|--7--7--7--7--7--5--5--|

ⓘ Bass guitar tab for 'Remedy' by Seether, Saron Gas, an alternative metal band formed in 1999 from Pretoria, South Africa

Almost there ...

Sign in to get your own page with links to favourite songs and more. You are just one click away...

Login with Facebook Login with Google