Log in

One click and you are in

Login with Facebook Login with Google

Why sign up and log in

Guitar Tabs Explorer
Seether bass tabs for No jesus christ

Bass tabs

Band : Seether
Song : No Jesus Christ
Album: Finding Beauty in Negative Spaces

I thought that the three tabs here were not on the good notes, so I made
mine, wich I think is like 95% correct, but I may be wrong. This is my
interpretation of the song and how I play it, if you don't like it, just
don't take it!
Intro
F|-----5h7----5h7----5h7---10----|
C|-0-00---0-00---0-00---0-0------| x8
G|-------------------------------|
C|-------------------------------|


Verse I

F|-----5h7----5h7----5h7---10------5h7----5h7----5h7---8---|
C|-0-00---0-00---0-00---0-0----0-00---0-00---0-00---0-0----| x4
G|---------------------------------------------------------|
C|---------------------------------------------------------|

F|-----5h7----5h7----5h7---10----|
C|-0-00---0-00---0-00---0-0------| x4
G|-------------------------------|
C|-------------------------------|

F|-----5h7----5h7----5h7---10------5h7----5h7----5h7---8---|
C|-0-00---0-00---0-00---0-0----0-00---0-00---0-00---0-0----| x4
G|---------------------------------------------------------|
C|---------------------------------------------------------|

F|-----5h7----5h7----5h7---10----|
C|-0-00---0-00---0-00---0-0------| x4
G|-------------------------------|
C|-------------------------------|

Pre-Chorus I

F|-----------------------------|
C|-----------------------------| x7
G|-----3h5----3h5----3h5---8---|
C|-0-00---0-00---0-00---0-0----|

F|-----------------------------|
C|----------------------53-3---|
G|-----3h5----3h5----3h5--5----|
C|-0-00---0-00---0-00----------|


Bridge

F|---------------------------------------|
C|---------------------------------------| x2
G|---------------------------------------|
C|-0~----0~----00-----2~---2~---2-2-222--|


Pre Chorus II

F|-----------------------------|
C|-----------------------------| x7
G|-----3h5----3h5----3h5---8---|
C|-0-00---0-00---0-00---0-0----|

F|-----------------------------|
C|----------------------53-3---|
G|-----3h5----3h5----3h5--5----|
C|-0-00---0-00---0-00----------|


Chorus I

F|--------------------------------------------------------------------------|
C|--------------333555------------555333------------------------------------| x2
G|-555555555555------333333333333------111111111111333555000000000000444444-|
C|--------------------------------------------------------------------------|


Verse II

F|-----5h7----5h7----5h7---10----|
C|-0-00---0-00---0-00---0-0------| x4
G|-------------------------------|
C|-------------------------------|

F|-----5h7----5h7----5h7---10------5h7----5h7----5h7---8---|
C|-0-00---0-00---0-00---0-0----0-00---0-00---0-00---0-0----| x4
G|---------------------------------------------------------|
C|---------------------------------------------------------|

F|-----5h7----5h7----5h7---10----|
C|-0-00---0-00---0-00---0-0------| x4
G|-------------------------------|
C|-------------------------------|


Chorus II

F|--------------------------------------------------------------------------|
C|--------------333555------------555333------------------------------------| x4
G|-555555555555------333333333333------111111111111333555000000000000444444-|
C|--------------------------------------------------------------------------|

The outro is a kind of long improvisation, so play as you feel it dudes!

Almost there ...

Sign in to get your own page with links to favourite songs and more. You are just one click away...

Login with Facebook Login with Google