Log in

One click and you are in

Login with Facebook Login with Google

Why sign up and log in

Guitar Tabs Explorer
Seether bass tabs for Let you down

Bass tabs

  • Tuning: Drop D
Track 5 from Poison the Parish - Let You Down


Tuning - 1 Step Down (Drop D)

             Intro
G |----------------|----------------|----------------|----------------|
D |----------------|----------------|----------------|----------------|
A |----------------|----------------|----------------|----------------|
D |--2-2--2-2-2-0--|--2-2--2-2-2-0--|--2-2--2-2-2-0--|--5----0-5-7-5--|

G |----------------|----------------|----------------|----------|
D |----------------|----------------|----------------|----------|
A |----------------|----------------|----------------|----------|
D |--2-2--2-2-2-0--|--2-2--2-2-2-0--|--2-2--2-2-2-0--|--5----0--|

            Verse - X2
G |-------------------------|---------------|---------------|
D |-------------------------|---------------|---------------|
A |-------------------------|---------------|---------------|
D |--2--2-2--0--0-2--2-2--0-|--0-2--2-2--0--|-5----0-5-7-5--|

G |-------------------------|---------------|----------|
D |-------------------------|---------------|----------|
A |-------------------------|---------------|----------|
D |--2--2-2--0--0-2--2-2--0-|--0-2--2-2--0--|--5----0--|

             Pre Chorus - X2
G |---------------|---------------|---------------|----------------|
D |---------------|---------------|---------------|----------------|
A |---------------|---------------|---------------|----------------|
D |--0-2--2-2--0--|--0-2--2-2--0--|--0-2--2-2--0--|--5----0-5-7-5--|

G |---------------|---------------|---------------|----------|
D |---------------|---------------|---------------|----------|
A |---------------|---------------|---------------|----------|
D |--0-2--2-2--0--|--0-2--2-2--0--|--0-2--2-2--0--|--5----0--|

                 Chorus
G |--------------------------------------|----------------|-----------------|
D |--------------------------------------|----------------------------------|
A |--7-7-7-7-7-7-7-7-7-7-7-7-7/10-10-10--|--5-5-5-5-5-5-5-5-5-5-5-5-5/7-7-7-|
D |--------------------------------------|----------------------------------|

G |-------------------------------------|---------------------------------|
D |-------------------------------------|---------------------------------|
A |--3-3-3-3-3-3-3-3-3-3-3-3-3/5-5-5-5--|---------------------------------|
D |-------------------------------------|--7-7-7-7-7-7-7-7-7-5-5-5-5-5-5--|

G |--------------------------------------|----------------|-----------------|
D |--------------------------------------|----------------------------------|
A |--7-7-7-7-7-7-7-7-7-7-7-7-7/10-10-10--|--5-5-5-5-5-5-5-5-5-5-5-5-5/7-7-7-|
D |--------------------------------------|----------------------------------|

G |-------------------------------------|---------------------------------|
D |-------------------------------------|---------------------------------|
A |--3-3-3-3-3-3-3-3-3-3-3-3-3/5-5-5-5--|---------------------------------|
D |-------------------------------------|--7-7-7-7-7-7-7-7-7-8-8-8-8-8-8--|

                Post Chorus
G |----------------|----------------|----------------|----------------|
D |----------------|----------------|----------------|----------------|
A |----------------|----------------|----------------|----------------|
D |--2-2--2-2-2-0--|--2-2--2-2-2-0--|--2-2--2-2-2-0--|--5----0-5-7-5--|

G |----------------|----------------|----------------|----------|
D |----------------|----------------|----------------|----------|
A |----------------|----------------|----------------|----------|
D |--2-2--2-2-2-0--|--2-2--2-2-2-0--|--2-2--2-2-2-0--|--5----0--|

            Verse II - X2
G |-------------------------|---------------|---------------|
D |-------------------------|---------------|---------------|
A |-------------------------|---------------|---------------|
D |--2--2-2--0--0-2--2-2--0-|--0-2--2-2--0--|-5----0-5-7-5--|

G |-------------------------|---------------|----------|
D |-------------------------|---------------|----------|
A |-------------------------|---------------|----------|
D |--2--2-2--0--0-2--2-2--0-|--0-2--2-2--0--|--5----0--|

             Pre Chorus - X2
G |---------------|---------------|---------------|----------------|
D |---------------|---------------|---------------|----------------|
A |---------------|---------------|---------------|----------------|
D |--0-2--2-2--0--|--0-2--2-2--0--|--0-2--2-2--0--|--5----0-5-7-5--|

G |---------------|---------------|---------------|----------|
D |---------------|---------------|---------------|----------|
A |---------------|---------------|---------------|----------|
D |--0-2--2-2--0--|--0-2--2-2--0--|--0-2--2-2--0--|--5----0--|

                Chorus II
G |--------------------------------------|----------------|-----------------|
D |--------------------------------------|----------------------------------|
A |--7-7-7-7-7-7-7-7-7-7-7-7-7/10-10-10--|--5-5-5-5-5-5-5-5-5-5-5-5-5/7-7-7-|
D |--------------------------------------|----------------------------------|

G |-------------------------------------|---------------------------------|
D |-------------------------------------|---------------------------------|
A |--3-3-3-3-3-3-3-3-3-3-3-3-3/5-5-5-5--|---------------------------------|
D |-------------------------------------|--7-7-7-7-7-7-7-7-7-5-5-5-5-5-5--|

G |--------------------------------------|----------------|-----------------|
D |--------------------------------------|----------------------------------|
A |--7-7-7-7-7-7-7-7-7-7-7-7-7/10-10-10--|--5-5-5-5-5-5-5-5-5-5-5-5-5/7-7-7-|
D |--------------------------------------|----------------------------------|

G |-------------------------------------|---------------------------------|
D |-------------------------------------|---------------------------------|
A |--3-3-3-3-3-3-3-3-3-3-3-3-3/5-5-5-5--|---------------------------------|
D |-------------------------------------|--7-7-7-7-7-7-7-7-7-8-8-8-8-8-8--|

                Bridge
G |---------------|---------------|---------------|---------------|
D |---------------|---------------|---------------|---------------|
A |---------------|---------------|---------------|---------------|
D |--5-0-5-0-5/8--|--2-0-2-0\5/0--|--5-0-5-0-0/8--|--2-0-2-0\5/0--|

G |---------------|---------------|---------------|-----------|
D |---------------|---------------|---------------|-----------|
A |---------------|---------------|---------------|-----------|
D |--5-0-5-0-5/8--|--2-0-2-0\5/0--|--5-0-5-0-0/8--|--2-0-2-0--|

G |---------------|---------------|---------------|---------------|
D |---------------|---------------|---------------|---------------|
A |---------------|---------------|---------------|---------------|
D |--5-0-5-0-5/8--|--2-0-2-0\5/0--|--5-0-5-0-0/8--|--2-0-2-0\5/0--|

G |---------------|---------------|---------------|-------------------|
D |---------------|---------------|---------------|-------------------|
A |---------------|---------------|---------------|-------------------|
D |--5-0-5-0-5/8--|--2-0-2-0\5/0--|--5-0-5-0-0/8--|--2-0-2-0-0-0-0-0--|

              Final Chorus
G |--------------------------------------|----------------|-----------------|
D |--------------------------------------|----------------------------------|
A |--7-7-7-7-7-7-7-7-7-7-7-7-7/10-10-10--|--5-5-5-5-5-5-5-5-5-5-5-5-5/7-7-7-|
D |--------------------------------------|----------------------------------|

G |-------------------------------------|---------------------------------|
D |-------------------------------------|---------------------------------|
A |--3-3-3-3-3-3-3-3-3-3-3-3-3/5-5-5-5--|---------------------------------|
D |-------------------------------------|--7-7-7-7-7-7-7-7-7-5-5-5-5-5-5--|

G |--------------------------------------|----------------|-----------------|
D |--------------------------------------|----------------------------------|
A |--7-7-7-7-7-7-7-7-7-7-7-7-7/10-10-10--|--5-5-5-5-5-5-5-5-5-5-5-5-5/7-7-7-|
D |--------------------------------------|----------------------------------|

G |-------------------------------------|---------------------------------|
D |-------------------------------------|---------------------------------|
A |--3-3-3-3-3-3-3-3-3-3-3-3-3/5-5-5-5--|---------------------------------|
D |-------------------------------------|--7-7-7-7-7-7-7-7-7-8-8-8-8-8-8--|

               Outro
G |----------------|----------------|----------------|----------------|
D |----------------|----------------|----------------|----------------|
A |----------------|----------------|----------------|----------------|
D |--2-2--2-2-2-0--|--2-2--2-2-2-0--|--2-2--2-2-2-0--|--5----0-5-7-5--|

G |----------------|----------------|----------------|----------------|
D |----------------|----------------|----------------|----------------|
A |----------------|----------------|----------------|----------------|
D |--2-2--2-2-2-0--|--2-2--2-2-2-0--|--2-2--2-2-2-0--|--5----0-0-0-0--|

Almost there ...

Sign in to get your own page with links to favourite songs and more. You are just one click away...

Login with Facebook Login with Google