Log in

One click and you are in

Login with Facebook Login with Google

Why sign up and log in

Guitar Tabs Explorer
Seether tabs for I m the one

Guitar tabs

1=Eb 4=Db
2=Bb 5=Ab
3=Gb 6=Db


| ----------------------
| ----------------------
| ----------------------
| ----------------------
| -3h5--0--2-2--2h0--
| -3h5--0--2-2--2h0--

Intro - Guitar 1 - Shaun

| ---------------------
| ---------------------
| -9--9--9s7--9s11--
| --------------------
| -7--7--7s5--7--9--
| --------------------

Intro - Guitar 2 - Pat

| -
| ---4-----6-----4-----6-------------
| -------------------------------------
| -4---4-6---4-6---4-6---------------
| -------------------------3h5-0--2\--
| -------------------------3h5-0--2\--

Verse - Guitar 2 - Pat


| ----------------------
| ----------------------
| ----------------------
| ----------------------
| -3h5--0--2-2--2h0--
| -3h5--0--2-2--2h0--

Pre-Chorus - Both Guitars

| -----------------------------------------------
| -----------------------------------------------
| -----------------------------------------------
| -4-4-4-4-4-4-4\10-10-10-10-10-10-7-7-7-7-7-7-7
| -2--2-2-2--2-2-2\-8-8-8-8-8-8--5-5-5--5-5-5-5--
| -----------------------------------------------

Chorus

| --------------
| --------------
| -9-9-9/7-9--
| --------------
| -7-7-7/5-7--
| --------------

Chorus (continued...)

| ---------------
| ---------------
| ---------------
| ---------------
| ---7b---------
| -0----0-7bs--

Bridge Interlude

| ------------------------------
| ------------------------------
| ------------------------------
| ------------------------------
| -0-3-2-0-2-1-0-3-2-0-2-1--
| -0-3-2-0-2-1-0-3-2-0-2-1--

Bridge

| --------------------
| --------------------
| -9--9--9s7--9s11--
| --------------------
| -7--7--7s5--7--9--
| --------------------

Outro - Guitar 2 - Pat

Almost there ...

Sign in to get your own page with links to favourite songs and more. You are just one click away...

Login with Facebook Login with Google