Log in

One click and you are in

Login with Facebook Login with Google

Why sign up and log in

Guitar Tabs Explorer
Seether tabs for Gasoline

Guitar tabs

Tuning: Eb,Ab,Db,Gb,Bb,eb (down half a step)


Intro: (x4)

-----------------------------------
-----------------------------------
-----------------------------------
--2-2-x-x--x--x--x--x-x-x-x--------
--2-2-x-x--x--x--x--x-x-x-x--------
--0-0-x-x--x--x--x--x-x-x-x--------

Then: (x3)

-----------------------------------
-----------------------------------
------2-2-2-0-0-3333---------------
--2-2------------------------------
--2-2------------------------------
--0-0------------------------------

Then: (x1)

-----------------------------------
-----------------------------------
------2-2-2-0-0-5555---------------
--2-2------------------------------
--2-2------------------------------
--0-0------------------------------


Verse (part 1): (x2)

-----------------------------------
-----------------------------------
-----------------------------------
--2-2------------------------------
--2-2------------------------------
--0-0------------------------------

Verse (part 2): (x )

-----------------------------------
-----------------------------------
--0-2h3p2-0------------------------
------------2-2-x-x--x--x--x--x-x-x-x--
------------2-2-x-x--x--x--x--x-x-x-x--
------------0-0-x-x--x--x--x--x-x-x-x--


Chorus: (x4)

-----------------------------------
-----------------------------------
-----------------------------------
--2--5-5--7-7-7--5-5---------------
--2--5-5--7-7-7--5-5---------------
--0--3-3--5-5-5--3-3---------------


Bridge: (x4)

-----------------------------------
-----------------------------------
-----------------------------------
--2--7/6/5/4/3/--------------------
--2--7/6/5/4/3/--------------------
--0--5/4/3/2/1/--------------------

(In the bridge you play each power chord a few times but I
just put the power chords used there so you know which ones
to slide down from)

Then: (x )

-----------------------------------
-----------------------------------
--9999999999999/777---(and so on)--
-----------------------------------
-----------------------------------
-----------------------------------

(not sure how many times each note is played but if you listen
to the song you'll know)

That's about it...if you have any questions email me.
(zarene@hotmail.com)

Other versions of Gasoline

GasolineChords

Almost there ...

Sign in to get your own page with links to favourite songs and more. You are just one click away...

Login with Facebook Login with Google