Log in

One click and you are in

Login with Facebook Login with Google

Why sign up and log in

Guitar Tabs Explorer
Seether tabs for Fine again

Guitar tabs with lyrics

Tabbed by: Pete(plangen@hotmail.com)
Corrected by Kerkie(ceegee@intekom.co.za)

Tuning: Drop-d

The original tab was mostly correct, however Shaun uses an overdub
with the intro and I've also changed the chorus a little bit.


Intro 1 (clean perhaps with a slight effect)
E----------------------------------------------
B----------------------------------------------
G-----------------------1----------------------
D-----4---------7---------2---0-0--------------
A×--4---4-----7---7---------2-0-0--------------
D-4--------/7---------2-------0-0--------------


Intro 2
E----------------------------------------------
B-------------------9---------10---------------
G-----9--9-------------------------------------
D---9------------------------------------------
A-9--------------------------------------------
D----------------------------------------------


Intro 1 (repeated)
E----------------------------------------------
B----------------------------------------------
G-----------------------1----------------------
D-----4---------7---------2---0-0--------------
A×--4---4-----7---7---------2-0-0--------------
D-4--------/7---------2-------0-0--------------

Intro 2 (continued)
E----------------------------------------------
B-9----9--10---10---9-----9--------------------
G---9--------9---------9-----11----------------
D----------------------------------------------
A----------------------------------------------
D----------------------------------------------


Verse    (clean perhaps with a slight effect)
E----------------------------------------------
B----------------------------------------------
G-------------------------7-7-7----------------
D-4-4-4---7-7-7---2-2-2---7-7-7----------------
A-4-4-4---7-7-7---2-2-2---5-5-5----------------
D-4-4-4---7-7-7---2-2-2------------------------


Chorus  (distortion)
E----------------------------------------------
B----------------------------------------------
G--------------------7-7-7---4-4-4-------------
D-4-4-4-2-2--4-4-4---7-7-7---4-4-4---2-2-2-----
A-4-4-4-2-2--4-4-4---5-5-5---2-2-2---2-2-2-----
D-4-4-4-2-2--4-4-4-------------------2-2-2-----
 [muted]
(note: the muted and 2's part is only played for the transition
from Pre-Chorus to chorus)


Bridge   (distortion)
E----------------------
B----------------------
G----------------------
D----------------------
A-5---5/2---2/5---5/2--
D---------------------- and so on...

Song Layout:
Intro1+Intro2 x2

Verse         x8 Around the the 7th time,you play
a part of Intro2 over it

Chorus        x4
Intro1        x1

Verse         x7

Chorus        x4

Bridge        x-

Chorus        x12

Other versions of Fine Again

Fine againChords
Fine again acousticTabs
Fine again live acousticTabs

Almost there ...

Sign in to get your own page with links to favourite songs and more. You are just one click away...

Login with Facebook Login with Google