Log in

One click and you are in

Login with Facebook Login with Google

Why sign up and log in

Guitar Tabs Explorer
Seether chords for Fine again

Guitar chords

Song  : Fine Again
Type  : Guitar Tab

Tabbed by: Damir A chord diagramG+G


Intro:

  e  -----------------------------------------------------------------
  b  -----------------------------------------------------------------
 g  ----------------------------------------------------------7--7--------  x2
 d  ---------4---------------7-----------------2------------7--7--------
  a  -----4----2----------7-----5----------2-----0---------5--5--------
  e  --2--------------5----------------0------------------------------


Verse/Chorus:

  e  -----------------------------------------------------------------
  b  -----------------------------------------------------------------
  g  ---------------------------------------------------------7--7--7--7--
  d  ---4--4----------7--7--7--7-------2--2---------------7--7--7--7--
  a  ---4--4----------7--7--7--7-------2--2---------------5--5--5--5--
  e  ---2--2----------5--5--5--5-------0--0---------------------------

Other versions of Fine Again

Fine againTabs
Fine again acousticTabs
Fine again live acousticTabs

Almost there ...

Sign in to get your own page with links to favourite songs and more. You are just one click away...

Login with Facebook Login with Google