Log in

One click and you are in

Login with Facebook Login with Google

Why sign up and log in

Guitar Tabs Explorer
Seether bass tabs for Fine again

Bass tabs

Tuning: Drop D

Enjoy

  Intro - Bass rests
G |-----------------------|
D |-----------------------|
A |-----------------------|
D |-----------------------|
 0:11 1st Verse - Repeat 8 times
G |--------------------------------|
D |--------------------------------|
A |--------0-0--0------------------|
D |--4--4----------2--2--0-0--0----|


 0:55  Chorus - Repeat 4 times
G |---------------------------------|
D |---------------------------------|
A |-------5-5--5--2--2--------------|
D |--4-4----------------2-2--2------|

  1:17
G |---------------------|
D |---------------------|
A |---------------------|
D |--4------------------|


 1:22  2nd Verse - Repeat 7 times
G |--------------------------------|
D |--------------------------------|
A |--------0-0--0------------------|
D |--4--4----------2--2--0-0--0----|

 2:00  Chorus - Repeat 4 times
G |------------------------------|
D |------------------------------|
A |-------5-5--5--2--2-----------|
D |--4-4----------------2-2--2---|


 2:22 Bridge - Repeat 2 times
G |--------------------------------|
D |--------------------------------|
A |--5-/-2-----5-/-2---------------|
D |--------------------------------|


 2:44  Chorus - Repeat 12 times
G |------------------------------|
D |------------------------------|
A |-------5-5--5--2--2-----------|
D |--4-4----------------2-2--2---|


    Ending
G |-------------------|
D |-------------------|
A |-------------------|
D |--4----------------|

Almost there ...

Sign in to get your own page with links to favourite songs and more. You are just one click away...

Login with Facebook Login with Google