Log in

One click and you are in

Login with Facebook Login with Google

Why sign up and log in

Guitar Tabs Explorer
Seether tabs for Driven under

Guitar tabs

Intro/Verse:(repeat a lot of times)

Do you think I’m faking it when I’m lying next to you

e-----0----0----0----0-|----0----0--0----0--|
B----------------------|--------------3----3|
G----------------------|--------------------|
D----------------------|--------------------|
A---3----3----3----3---|--2----2------------|
D-3----3----3----3-----|2----2----2----2----|


Chorus:(repeat 2 times)

and then she toldme she had a gun...
e---------|----------|----------|---------|
B---------|----------|----------|---------|
G---------|----------|----------|---------|
D-3-3-3-3-|3/7-7-7-7-|7/3-3-3-3-|3/2-2-2-2|
A-3-3-3-3-|3/7-7-7-7-|7/3-3-3-3-|3/2-2-2-2|
D-3-3-3-3-|3/7-7-7-7-|7/3-3-3-3-|3/2-2-2-2|

 

Repeat Intro/Verse
 

Repeat chorus

 


Bridge:

We have to succumb to...
e------------|-------------|------------|---------------|
B------------|-------------|------------|---------------|
G------------|-------------|------------|---------------|
D-0/7-7------|7/3-3--------|3/0-0-------|0/5-5----------|
A-0/7-7------|7/3-3--------|3/0-0-------|0/5-5----------|
D-0/7-7------|7/3-3--------|3/0-0-------|0/5-5----------|

 

post-bridge

and then she told me she had a gun
e------------|-------------|------------|
B------------|-------------|------------|
G------------|-------------|------------|
D------------|-------------|------------|
A------------|-------------|------------|
D-3---------3|/7-7--------7|/3-3--------|


Repeat chorus

 

ⓘ Guitar tab for 'Driven Under' by Seether, an alternative metal band formed in 1999 from Pretoria, South Africa

Almost there ...

Sign in to get your own page with links to favourite songs and more. You are just one click away...

Login with Facebook Login with Google