Log in

One click and you are in

Login with Facebook Login with Google

Why sign up and log in

Guitar Tabs Explorer
Seether bass tabs for Diseased

Bass tabs

Wow, talk about bad tab. Time to get it right :)

Anyway, there have been no good bass tab for Diseased, so I thought
I'd post an accurate one.
Tabbed by: GreenAiden555
e-mail- greenaiden555@hotmail.com


Intro @ 0:16
Dale-style picking. One-two, one-two, one-two...
Repeat as necessary.
Gb|-------------------------------------------------------------------------|
Db|-------------------------------------------------------------------------|
Ab|-------------------------------------------------------------------------|
Db|----0-0---10-10---12-12---8-8--------------------------------------------|


Pre Chorus
Gb|-------------------------------------------------------------------------|
Db|-------------------------------------------------------------------------|
Ab|-------------------------------------------------------------------------|
Db|----0---3-5---3-0---3-5--------------------------------------------------|


Verse 1 (x2)

Gb|-------------------------------------------------------------------------|
Db|-------------------------------------------------------------------------|
Ab|-------------------------------------------------------------------------|
Db|-0-0-000x3--1-1-111------------------------------------------------------|


Verse 2
Figure out the rhythm.
Gb|-------------------------------------------------------------------------|
Db|-------------------------------------------------------------------------|
Ab|-------------------------------------------------------------------------|
Db|--5-3-6--x3---------5-6-8------------------------------------------------|

Chorus
In parentheses isn't needed, but it gives it more tone. I like it.
Gb|-------------------------------------------------------------------------|
Db|-------------------------------------------------------------------------|
Ab|----3/5-5-5--5/7-7-7-7/8----5\3------------------------------------------|
Db|---(0---0-0--0---0-0-0-)----------3-3/5-555555-5\333-3/555*--------------|

* Rhythm might be off.


Bridge
Again, figure out the rhythm.
Gb|-------------------------------------------------------------------------|
Db|-------------------------------------------------------------------------|
Ab|-------------------------------------------------------------------------|
Db|-----9----3----1---------------------------------------------------------|


Intro

Pre Chorus

Verse 1

Verse 2

Pre Chorus

Chorus

Bridge
Half of Pre Chorus

Chorus x2

Verse 1

Have fun! :)


| / slide up
| \ slide down
| h hammer-on
| p pull-off
| ~ vibrato
| + harmonic
| x Mute note

Almost there ...

Sign in to get your own page with links to favourite songs and more. You are just one click away...

Login with Facebook Login with Google