Log in

One click and you are in

Login with Facebook Login with Google

Why sign up and log in

Guitar Tabs Explorer
Seether tabs for Diseased acoustic

Guitar tabs with lyrics

not sure if its in A chord diagramEb MajorEb or A chord diagramEb MajorEb drop A chord diagramD MajorD

Seether
Diseased
Intro/verse 1:

Leave your mark under my skin
Oh my how strong you are
And feast your eyes on my disdain
And hope this one won't scar

Guitar 1:
|---------------------------------------------------------------|
|---------------------------------------------------------------|
|---------------------------------------------------------------|
|-------12------------12-13-12---------12---------5-5-5-5-5-5---|
|----12----12-----12----------------12----12------6-6-6-6-6-6---|
|--0-----------10-----------------0-----------------------------|

Guitar 2:
|--5------------------------------5-----------------------------|
|--3------------------------------3-----------------------------|
|--2------------------------------2-----------------------------|
|--0------------------------------0-----------------------------|
|---------------------------------------------------------------|
|---------------------------------------------------------------|

Next bit:

I will never belong to you, again
I will never belong to you,

Guitar 1:

|--13-13-13-13-13-13-12-12-12-13-13-13---7-7-7-7-7--8-8--5-5----|
|--10-10-10-10-10-10-10-10-10-10-10-10---8-8-8-8-8--8-8--6-6----|
|---------------------------------------------------------------|
|---------------------------------------------------------------|
|---------------------------------------------------------------|
|---------------------------------------------------------------|

Guitar 2:

|--13----------------12-------13---------7----------8----5------|
|--10----------------10-------10---------8----------8----6------|
|---------------------------------------------------------------|
|---------------------------------------------------------------|
|---------------------------------------------------------------|
|---------------------------------------------------------------|

Guitar 1:

|--13-13-13-13-13-13-12-12-12-13-13-13---7-7-7-7-7--8-8--10-10--|
|--10-10-10-10-10-10-10-10-10-10-10-10---8-8-8-8-8--8-8--8--8---|
|---------------------------------------------------------------|
|---------------------------------------------------------------|
|---------------------------------------------------------------|
|---------------------------------------------------------------|

Guitar 2:

|--13----------------12-------13---------7----------8----10-----|
|--10----------------10-------10---------8----------8----8------|
|---------------------------------------------------------------|
|---------------------------------------------------------------|
|---------------------------------------------------------------|
|---------------------------------------------------------------|

Next:

Push if you still need my pain
Cause I will never tell
So scream if you still hate my name
Cause I'll be where I fell

Guitar 1:

|----------------------------------------------------------------|
|----------------------------------------------------------------|
|---------------------------------------------------5-5-5--3-3-3-|
|-0-0--0--0-0-x-x--0-0--0--0-0-x-x--0-0--0--0-0-x-x-5-5-5--3-3-3-|x4
|-0-0--0--0-0-x-x--0-0--0--0-0-x-x--0-0--0--0-0-x-x-3-3-3--1-1-1-|
|-0-0--0--0-0-x-x--0-0--0--0-0-x-x--0-0--0--0-0-x-x-3-3-3--1-1-1-|

Guitar 2:

|----------------------------------------------------------------|
|----------------------------------------------------------------|
|---------------------------------------------------5-5-5--3-3-3-|
|---------------------------------------------------5-5-5--3-3-3-|x4
|-2-2--2--2-2------2-2--2--2-2------2-2--2--2-2-----3-3-3--1-1-1-|
|-0-0--0--0-0------0-0--0--0-0------0-0--0--0-0------------------|

Pre chorus:

Come sit close to me,
Let me feel your breath
Come sit close to me
Hands around my neck
Come sit close to me,
Let me feel your breath
Come sit close to me, close to me, yeah

Guitar 1:
|0-0-0-0-0-------------------------------------------------------|
|3-3-3-3-3-------------------------------------------------------|
|2-2-2-2-2----5-5------------------------------------------------|
|0-0-0-0-0----5-5-----5-5-5--------------------------------------|x4
|-------------3-3-----5-5-5--------------------------------------|
|---------------------3-3-3--------------------------------------|

Guitar 2:
|-0--------------------------------------------------------------|
|-3--------------------------------------------------------------|
|-2-----------5--------------------------------------------------|
|-0-----------5------5-------------------------------------------|x4
|-------------3------5-------------------------------------------|
|--------------------3-------------------------------------------|

This Bit again:

I will never belong to you, again
I will never belong to you,

Guitar 1:

|--13-13-13-13-13-13-12-12-12-13-13-13---7-7-7-7-7--8-8--7-7----|
|--10-10-10-10-10-10-10-10-10-10-10-10---8-8-8-8-8--8-8--8-8----|
|---------------------------------------------------------------|
|---------------------------------------------------------------|
|---------------------------------------------------------------|
|---------------------------------------------------------------|

Guitar 2:

|--13----------------12-------13---------7----------8----7------|
|--10----------------10-------10---------8----------8----8------|
|---------------------------------------------------------------|
|---------------------------------------------------------------|
|---------------------------------------------------------------|
|---------------------------------------------------------------|

Guitar 1:

|--13-13-13-13-13-13-12-12-12-13-13-13---7-7-7-7-7--8-8--10-10--|
|--10-10-10-10-10-10-10-10-10-10-10-10---8-8-8-8-8--8-8--8--8---|
|---------------------------------------------------------------|
|---------------------------------------------------------------|
|---------------------------------------------------------------|
|---------------------------------------------------------------|

Guitar 2:

|--13----------------12-------13---------7----------8----10-----|
|--10----------------10-------10---------8----------8----8------|
|---------------------------------------------------------------|
|---------------------------------------------------------------|
|---------------------------------------------------------------|
|---------------------------------------------------------------|

Have fun

Other versions of Diseased Acoustic

DiseasedTabs

Almost there ...

Sign in to get your own page with links to favourite songs and more. You are just one click away...

Login with Facebook Login with Google