Log in

One click and you are in

Login with Facebook Login with Google

Why sign up and log in

Guitar Tabs Explorer
Seether bass tabs for Dangerous

Bass tabs with lyrics

Tuning: Drop C (CGCF)
Tempo: 100BPM


**BASS Guitar
INTRO:

**This riff repeats 4 times:


F|-----------------14-------------17---17p14---16--16p14----|
C|-14--14h17p14-14----14h17p14-14---14-------14--14-----14--|
G|----------------------------------------------------------|
C|----------------------------------------------------------|


VERSE 1A:

**This riff repeats 4 times:

F|-----------------14-------------17---17p14---16--16p14----|
C|-14--14h17p14-14----14h17p14-14---14-------14--14-----14--|
G|----------------------------------------------------------|
C|----------------------------------------------------------|

"So take them off the blinders that cover your eyes
Don't break new ground, just follow the beaten path"


VERSE 1B:

**This riff repeats 4 times:

F|-----------------19----19p14----17--17p14----16--16p14----|
C|-14--14h17p14-14----14-------14---14------14---14-----14--|
G|----------------------------------------------------------|
C|----------------------------------------------------------|

"Well all I can do in the end is bury it in the cellar
And only a fool would pretend to blame it on the weather"

CHORUS:

**This riff repeats 4 times:

F|----------------------------------------------------------|
C|----------------------------------------------------------|
G|----------------------------------------------------------|
C|-7--7x05-7--7x05--7-7x05--7/10\---------------------------|

"It's so dangerous all this blamelessness
And I feel like I've lost all the good I've known
It's so dangerous all this shamelessness
And I feel like I'm watching a tumor grow. Yeah"


**Repeat VERSE 1A riff 6 times
**Repeat VERSE 1B riff 4 times
**Repeat CHORUS riff 4 times

"Now take them down the roses you smothered - they died
I hear the cries of souls you have eaten since
We all must revere and defend the fortune of the teller
We all must subdue and suspend belief that this gets better
It's so dangerous all this blamelessness
And I feel like I've lost all the good I've known
It's so dangerous all this shamelessness
And I feel like I'm watching a tumor grow. Yeah"


BRIDGE:

**No bass in the first half of the bridge then play 4 times:

F|----------------------------------------------------------|
C|----------------------------------------------------------|
G|----------------------------------------------------------|
C|-8-8-8-7-7-xxxx-5-5-xxxx-7-7\2----------------------------|

"Please just say you know you won't be satisfied
Not unless you know your name is verified
God I hope you choke on hate and stomach bile
Even as you sing the praise of feticide"


**Repeat CHORUS riff 8 times:

"It's so dangerous all this blamelessness
And I feel like I've lost all the good I've known
It's so dangerous all this shamelessness
And I feel like I'm watching a tumor grow. Yeah
And I feel like I've lost all the good I've known. Yeah
And I feel like I'm watching a tumor grow. Yeah"





************************************

| p Pull-off
| h Hammer-on
| x Dead note
| / Slide up
| \ Slide down

************************************

Almost there ...

Sign in to get your own page with links to favourite songs and more. You are just one click away...

Login with Facebook Login with Google