Log in

One click and you are in

Login with Facebook Login with Google

Why sign up and log in

Guitar Tabs Explorer
Seether tabs for Because of me

Guitar tabs

"Because of Me"
Seether
Karma and Effect
Drop A chord diagramD MajorD 1/2 step down

h - hammer on
p - pull off
P.M. - palm mute
x - choked note
<> - natural harmonic
/ - slide

Eb-----------------------------------------------
Bb-----------------------------------------------
Gb-----------------------------------------------
Db-----------------------------------------------
Ab---------3---------3-----3---------3-------2-3-
Db-0h2-0h2---0h2-0h2---0h2---0h2-0h2---0h2-2-2-3-

------------------------------------------
------------------------------------------
------------------------------------------
-------------------------------------xx-x-
---------3---------3-----3---------3-xx-x-
-0h2-0h2---0h2-0h2---0h2---0h2-0h2---xx-x-

-----------------------------------------------
----------------------------------------------- x2
-----------------------------------------------
-------------------------------------------2-3-
---------3---------3-----3---------3-------2-3-
-0h2-0h2---0h2-0h2---0h2---0h2-0h2---0h2-2-2-3-

-------------------------------------------------------
------------------------------------------------------- x2
---------<5>---------<5>-----------------<5>-----------
-----------------------------<5>-------------------2-3-
---------------------------------------------------2-3-
-0h2-0h2-----0h2-0h2-----0h2-----0h2-0h2-----0h2-2-2-3-

---0----------xx-7/8-
----0---------xx-5/6- x2
--------------xx-----
--------------xx-----
-2-------------------
-2-------------------

-------------------------
------------------------- x2
-------------------------
-222---2222---222--222-3-
-222---2222---222--222-3-
-222---2222---222--222-3-

---0-----0----xx-7/8-
----0-----0---xx-5/6- x2, slightly heavier
--------------xx-----
--------------xx-----
-2-------------------
-2-------------------

------------------------------
------------------------------ x4
-----------------5--5---------
-2-0---2-0--2-0--5--5-5-5-7-5-
-2-0---2-0--2-0--3--3-5-5-7-5-
-2-0---2-0--2-0-------5-5-7-5-

-----------------------------------------------
-----------------------------------------------
-----------------------------------------------
-------------------------------------------2-3-
---------3---------3-----3---------3-------2-3-
-0h2-0h2---0h2-0h2---0h2---0h2-0h2---0h2-2-2-3-

-------------------------------------------------------
-------------------------------------------------------
---------<5>---------<5>-----------------<5>-----------
-----------------------------<5>-------------------2-3-
---------------------------------------------------2-3-
-0h2-0h2-----0h2-0h2-----0h2-----0h2-0h2-----0h2-2-2-3-

---0----------xx-7/8-
----0---------xx-5/6- x2
--------------xx-----
--------------xx-----
-2-------------------
-2-------------------

-------------------------
------------------------- x2
-------------------------
-222---2222---222--222-3-
-222---2222---222--222-3-
-222---2222---222--222-3-

---0-----0----xx-7/8-
----0-----0---xx-5/6- x2, slightly heavier
--------------xx-----
--------------xx-----
-2-------------------
-2-------------------

------------------------------
------------------------------ x4
-----------------5--5---------
-2-0---2-0--2-0--5--5-5-5-7-5-
-2-0---2-0--2-0--3--3-5-5-7-5-
-2-0---2-0--2-0-------5-5-7-5-

-----------------------
----------------------- x12
-------4-------4-------
-------4-------4-------
-------3-------3-------
-5p4p3---5p4p3---5p4-4-

Guitar solo (lots of vibrato)
-10-10-10-12b-10-10-10-12b-10-10-12b--16b-----13----13-16b----13----15-
-------------------------------------------15----15--------15----15---- x2
-----------------------------------------------------------------------
-----------------------------------------------------------------------
-----------------------------------------------------------------------
-----------------------------------------------------------------------

-------------
-------------
-<5>-----<4>-
-----<5>-----
-------------
-------------

------------------------------
------------------------------ x8
-----------------5--5---------
-2-0---2-0--2-0--5--5-5-5-7-5-
-2-0---2-0--2-0--3--3-5-5-7-5-
-2-0---2-0--2-0-------5-5-7-5-

-----------------------
----------------------- x4
-------4-------4-------
-------4-------4-------
-------3-------3-------
-5p4p3---5p4p3---5p4-4-

Almost there ...

Sign in to get your own page with links to favourite songs and more. You are just one click away...

Login with Facebook Login with Google