Log in

One click and you are in

Login with Facebook Login with Google

Why sign up and log in

Guitar Tabs Explorer
Seether tabs for 69 tea acoustic

Guitar tabs with lyrics

Seether - 69 Tea (live acoustic)
http://www.youtube.com/watch v=JYpvTX6HAlw


Tuning: 1/2 step down for this performance (played in standard on the record)

Guitar 1 - Shaun Morgan
Guitar 2 - Pat Callahan
INTRO  2X
Guitar 1
E----------------------------------------------------|
B----------------------------------------------------|
G--------------7-7-7-------------------7h8-7---------|
D-----5-5--x---7-7-7--x-x--7-7--x---8----------------|
A-----5-5--x---5-5-5--x-x--7-7--x---8----------------|
E-----3-3--x----------x-x--5-5--x---6----------------|

Guitar 2
E-----------------------------------------------10>>>>>-| slide up quickly!
B-------------------------------------------------------|
G---------------------------------------7h8-7-----------|
D-------------------------------------------------------|
A-------------------------------------------------------|
E-------------------------------------------------------|


VERSE  8X
Guitar 1
E-------------------------------------------------|
B-------------------------------------------------|
G--------------7-7-7--------------------7h8-7-----|
D-----5-5--x---7-7-7--x-x--7-7--x-x--8------------|
A-----5-5--x---5-5-5--x-x--7-7--x-x--8------------|
E-----3-3--x----------x-x--5-5--x-x--6------------|

After 4 times of Guitar 1 playing VERSE and Guitar 2 playing his INTRO riff 4 times,
Guitar 2 plays what's below! NOTE: Watch Pat in the video here - the 2nd chord is right!
E-------------------------------------------------|
B-------------------------------------------------|
G---------------------------------------7h8-7-----|
D-----5-5--x---7-7-7--x-x--7-7--x-x--8------------|
A-----5-5--x---5-5-5--x-x--7-7--x-x--8------------|
E-----3-3--x---5-5-5--x-x--5-5--x-x--6------------|

CHORUS  2X
Both Guitars
E-------------------------------------------------------|
B-------------------------------------------------------|
G----------9-9----------------------------5-5-5-5-------|
D-----x-x--9-9--x-x--9-9-9--x-x--7-7--x-x-5-5-5-5-------|
A-----x-x--7-7--x-x--9-9-9--x-x--7-7--x-x-3-3-3-3-------|
E-----x-x--7-7--x-x--7-7-7--x-x--5-5--x-x-3-3-3-3-------|

E----------------------------------------------------------|
B----------------------------------------------------------|
G----------9-9-----------------------------5---------------|
D-----x-x--9-9--x-x--9-9-9--x-x--7-7--x-x--5----x-x-xx-----|
A-----x-x--7-7--x-x--9-9-9--x-x--7-7--x-x--3----x-x-xx-----|
E-----x-x--7-7--x-x--7-7-7--x-x--5-5--x-x--3----x-x-xx-----|

Then Play VERSE 8X
Then CHORUS     2X


BRIDGE  6X
E----------------------------------------------------|
B----------------------------------------------------|
G----------------------------------------------------|
D-5-5-5-x--6-6-6-6-6-6-6-x-x--4-4--x--3--3-3-3-3-3-3-|
A-3-3-3-x--6-6-6-6-6-6-6-x-x--2-2--x--3--3-3-3-3-3-3-|
E-3-3-3-x--4-4-4-4-4-4-4-x-x--2-2--x--1--1-1-1-1-1-1-|


SOLO - Part 1 - played 2x
Guitar 1 -- Guitar 2 plays the verse a few times with this!
E-10--10--10--12--13---13p12p10--10--10--10--12--13--13s12p10--------|
B---10--10--10--10--10-------------10--10--10--10--10----------------|
G--------------------------------------------------------------------|
D--------------------------------------------------------------------|
A--------------------------------------------------------------------|
E--------------------------------------------------------------------|


SOLO Continued
Guitar 1 - 5X - played very fast
E-13p12p10---|
B------------|
G------------|
D------------|
A------------|
E------------|

Guitar 2
E------------------12--12----12--12>>>>>>>>>>>>>>--| slide all the way up
B--0---0-------------------------------------------|
G--9---9---9--9--9---------------------------------|
D--------------------------------------------------|
A--------------------------------------------------|
E--------------------------------------------------|


CHORUS  1X

Chorus ends with both guitars holding index finger over bottom 3 strings over the 1st
muting the strings while "scratching" over them five times!


CHORUS  1X

PAUSE  - Scratch/Mute Both Guitars 4 times.

Play this once      ||  Play this 8X (BRIDGE riff)
E-------------------||----------------------------------------------------|
B-------------------||----------------------------------------------------|
G-------------------||----------------------------------------------------|
D-4-4-4-4---3-3-3-3-||-5-5-5-x--6-6-6-6-6-6-6-x-x--4-4--x--3--3-3-3-3-3-3-|
A-2-2-2-2---3-3-3-3-||-3-3-3-x--6-6-6-6-6-6-6-x-x--2-2--x--3--3-3-3-3-3-3-|
E-2-2-2-2---1-1-1-1-||-3-3-3-x--4-4-4-4-4-4-4-x-x--2-2--x--1--1-1-1-1-1-1-|

End With:
E---------|
B---------|
G---------|     Mute immediately
D----5----|
A----3----|
E----3----|

Other versions of 69 Tea Acoustic

69 teaChords
69 teaTabs

Almost there ...

Sign in to get your own page with links to favourite songs and more. You are just one click away...

Login with Facebook Login with Google