Ill Never Find Another You by The Seekers

Ill Never Find Another You tab by The Seekers

Guitar tabs

-------------------------------------|
-------------------------------------|
-------------------------------------|
---0-3-1-0---------------------------|
-1---------3-----------0-------------|
-------------1---1-1-3---------------|

Bb  Eb   F



-8-8-8-11-10-8-10-----11-10-8----------------|
------------------11----------11-10----------|
---------------------------------------------|
---------------------------------------------|
---------------------------------------------|
---------------------------------------------|

Bb         Eb
There's a new world somewhere

C         F
They call The Promised Land

Bb    Dm
And I'll be there some day

Eb        F
If you will hold my hand

Gm        Eb
I still need you there beside me

Dm   Cm   Dm
No matter what I do

Eb  Bb    Eb  F   	   Bb Eb  F
For I know I'll never find another you





Bb		Eb
There is always someone

C 		  F
For each of us they say

Bb  Dm
And you'll be my someone
  Eb	    F
For ever and a day

Gm		    Eb
I could search the whole world over

Dm	 Cm 	 Dm
Until my life is through

Eb  Bb    Eb  F   	   Bb Eb  Bb
But I know I'll never find another you



Gm	 Eb
It's a long, long journey

Dm  Cm  Bb
So stay by my side

Gm		Eb
When I walk through the storm

Bb	  Eb  F
You'll be my guide, be my guide



Bb	 Eb
If they gave me a fortune

C		   F
My treasure would be small

Bb     Dm
I could lose it all tomorrow

Eb      F
And never mind at all

Gm		 Eb
But if I should lose your love, dear

Dm	   Cm    Dm
I don't know what I'll do

Eb   Bb     Eb  F	  Bb  Eb F
For I know I'll never find another you

[Instrumental Interlude]

But if I should lose your love, dear
I don't know what I'll do
For I know I'll never find another you

Another you, another you

Other versions of Ill Never Find Another You

Alternative guitar chords and tabs for Ill Never Find Another You by The Seekers

Find guitar tabs and chords

A B C D E F G H I J K L M N O P Q R S T U V W X Y Z #