Ill Never Find Another You by The Seekers

Ill Never Find Another You chords by The Seekers

Guitar chords with lyrics

I'LL NEVER FIND ANOTHER YOU
(Tom Springfield)
THE SEEKERS
(#5, 1964)

___________________________________________________________________


Intro:

Bb   F
v  v  v  v  v  v  v  v
----------------|----------------|
----3-6-4-3-1---|----------------|
3---------------|------------0-2-|
--------------3-|--------3-3-----|
----------------|----------------|
----------------|----------------|
[4x]

Verse 1:

 Bb    Eb    Cm    F    Bb
 / / / / / / / / / / / / / / / / / / / /
There's a...
Gm    Cm    F    Gm        F  Cm
/ / / / / / / / / / / / / / / / / / / / / / / /

Bb        Cm    Bb      F
/ / / / / / / / / / / / v  v  v  v   / / / /
  ----------------|There is...
  ----3-6-4-3-1---|
  3---------------|
  --------------3-|
  ----------------|
  ----------------|

Verse 2:

 Bb    Eb    Cm    F    Bb
 / / / / / / / / / / / / / / / / / / / /
There is...
Gm    Cm    F    Gm        F  Cm
/ / / / / / / / / / / / / / / / / / / / / / / /

Bb        Cm    Bb      F
/ / / / / / / / / / / / v  v  v  v   / / / /
  ----------------|It's a...
  ----3-6-4-3-1---|
  3-------------3-|
  ----------------|
  ----------------|
  ----------------|

Bridge:

     Gm    Eb    F  Cm  Bb    Gm
     / / / / / / / / / / / / / / / / / / / /
It's a...
F  Cm  Bb Cm  F
/ / / / / / / / / / / /
 If they...

Verse 3:

 Bb    Eb    Cm    F    Bb
 / / / / / / / / / / / / / / / / / / / /
If they...
Gm    Cm    F    Gm        F  Cm
/ / / / / / / / / / / / / / / / / / / / / / / /

Bb        Cm    Bb      F
/ / / / / / / / / / / / v  v  v  v  v  v  v  v
  ----------------|----------------|
  ----3-6-4-3-1---|--------------1-|
  3---------------|------------3---|
  --------------3-|----------------|
  ----------------|----------------|
  ----------------|----------------|

Guitar solo:

Bb        Eb
v  v  v  v  v  v  v  v
----------------|----------------|
3-------3-----6-|--4---------3---|
----------------|----------------|
----------------|----------------|
----------------|----------------|
----------------|----------------|

Cm        F
v  v  v  v  v  v  v  v
----------------|----------------|
1-------1-------|----------------|
------3---3---2-|--------0---2---|
----------------|----------------|
----------------|----------------|
----------------|----------------|

Bb        Gm
v  v  v  v  v  v  v  v
----------------|----------------|
------3---3---3-|6-3-------4---6-|
3---------------|----------------|
----------------|----------------|
----------------|----------------|
----------------|----------------|

Cm        F
v  v  v  v  v  v  v  v
----------------|----------------|
8---8-6-4-6-8-6-|----------------|
----------------|----------------|
----------------|----------------|
----------------|----------------|
----------------|----------------|
But if...

Coda:

 Gm        F  Cm  Bb
     / / / / / / / / / / / / / / / / / / / /
But if...
Cm    Bb      F
/ / / / v  v  v  v  v  v  v  v
 ----------------|----------------|
 ----3-6-4-3-1---|----------------|
 3---------------|------------0-2-|
 --------------3-|--------3-3-----|
 ----------------|----------------|
 ----------------|----------------|

Bb      F
v  v  v  v  v  v  v  v
----------------|----------------|
----3-6-4-3-1---|----------------|
3---------------|------------0-2-|
--------------3-|--------3-3-----|
----------------|----------------|
----------------|----------------|

Bb
v  v  v  v  v  v  v  v
----------------|----------------||
----3-6-4-3-1---|----------------||
3-------------3-|----------------||
--------------3-|----------------||
--------------5-|----------------||
----------------|----------------||

___________________________________________________________________


Enjoy!

Any questions and/or corrections to diamhed@aol.com


--part1_c6.417a7fb.26306b14_boundary--

Other versions of Ill Never Find Another You

Alternative guitar chords and tabs for Ill Never Find Another You by The Seekers

Find guitar tabs and chords

A B C D E F G H I J K L M N O P Q R S T U V W X Y Z #