Ill Never Find Another You by The Seekers

Ill Never Find Another You bass tab by The Seekers

Bass tabs

Tuning: Standard (E A D G)


♫ Intro:
G|--------|-----------------------------------------|
D|-GUITAR-|-----1-1-3-----0-1-3-------1-1-3--3-3--3-|
A|-START--|-1-1---------1---------1-1---------------|
E|--------|-----------------------------------------|


♫ Verse 1:
G|-----------------------------------------------------------------------|
D|----------1--1-1------------3--3-3------------0--0-0---1--1-1---3--3-3-|
A|-1--1-1------------3--3-3------------1--1-1----------------------------|
E|-----------------------------------------------------------------------|

G|---------------------------------------------------------|
D|-5--5-5---1--1-1---3-3--1-1--0-0--1-1------2-2--1-1--3-3-|
A|---------------------------------------1-1---------------|
E|---------------------------------------------------------|

G|-------------------|
D|-----1-1-3--3-3--3-|
A|-1-1---------------|
E|-------------------|

♫ Verse 2:
G|-----------------------------------------------------------------------|
D|----------1--1-1------------3--3-3------------0--0-0---1--1-1---3--3-3-|
A|-1--1-1------------3--3-3------------1--1-1----------------------------|
E|-----------------------------------------------------------------------|

G|---------------------------------------------------------|
D|-5--5-5---1--1-1---3-3--1-1--0-0--1-1------2-2--1-1--3-3-|
A|---------------------------------------1-1---------------|
E|---------------------------------------------------------|

G|-------------------|
D|-----1-1-----------|
A|-1-1------1--1-1-0-|
E|-------------------|

Middle 8:
G|------------------------------------------------------------------------|
D|---------1--1-1-------3-3-------------------3-3--1-1-----1-1--3--3-3--3-|
A|-----------------1-1-------1--1-1-0------------------1-1----------------|
E|-3--3-3-----------------------------3--3-3------------------------------|

♫ Verse 3:
G|-----------------------------------------------------------------------|
D|----------1--1-1------------3--3-3------------0--0-0---1--1-1---3--3-3-|
A|-1--1-1------------3--3-3------------1--1-1----------------------------|
E|-----------------------------------------------------------------------|

G|---------------------------------------------------------|
D|-5--5-5---1--1-1---3-3--1-1--0-0--1-1------2-2--1-1--3-3-|
A|---------------------------------------1-1---------------|
E|---------------------------------------------------------|

G|-------------------|
D|-----1-1-3--3-3--3-|
A|-1-1---------------|
E|-------------------|

♫ Interlude:
G|-----------------------------------------------------------------------|
D|----------1--1-1------------3--3-3------------0--0-0---1--1-1---3--3-3-|
A|-1--1-1------------3--3-3------------1--1-1----------------------------|
E|-----------------------------------------------------------------------|

♫ Outro:
G|---------------------------------------------------------|
D|-5--5-5---1--1-1---3-3--1-1--0-0--1-1------2-2--1-1--3-3-|
A|---------------------------------------1-1---------------|
E|---------------------------------------------------------|

                          (END)
G|-----------------------------------------------------|
D|-----1-1-3--3-3--3-------1-1-3---3-3--3-------1-1----|
A|-1-1-----------------1-1------------------1-1------1-|
E|-----------------------------------------------------|

Find guitar tabs and chords

A B C D E F G H I J K L M N O P Q R S T U V W X Y Z #