I'll Never Find Another You  by The Seekers

I'll Never Find Another You chords by The Seekers (Ver. 2)

Guitar chords with lyrics

Tuning: Standard tuning



SONG:  I'LL NEVER FIND ANOTHER YOU
ARTIST: THE SEEKERS
TAB BY: DON CZARSKI
EMAIL: GUITARZAN7@HOTMAIL.COM


     I'LL NEVER FIND ANOTHER YOU
         THE SEEKERS


INTRO: PLAY 4x's

 Bb  Eb  F
E --------------------------
B --------------------------
G --------------------------
D ---0-3-1-0----------------
A -1---------3----------0---
E -------------1--1-1-3-----


VERSE:
 F    Bb     Eb
There's a new world somewhere,
   C7        F7
They call the promised land,
     Bb    Dm
And I'll be there someday,
  Eb        F
If you will hold my hand.
     Gm       Eb
I still need you there beside me,
  F   Eb  Dm
No matter what I do,
 Eb  Bb    Eb     F7  Bb Eb F
For I know I'll never find another you-ooh-ooh.


VERSE:
     Bb   Eb
There is always someone
   C7       F7
For each of us they say,
      Bb   Dm
And you'll be my someone
  Eb     F
Forever and a day.
     Gm          Eb
I could search the whole world over,
  F   Eb    Dm
Until my life is through
 Eb  Bb    Eb     F7  Bb Eb Bb
But I know I'll never find another you-ooh-ooh.


BREAK:
Dm   Gm     Eb
It's a long, long, journey,
  Bb
So stay by my side.
    Gm         F
When I walk through the storm
    Eb   Bb
You'll be my guide,
Eb   F7
Be my guide


VERSE:
     Bb    Eb
If they gave me a fortune,
  C7        F7
My pleasure would be small,
     Bb      Dm
I could lose it all tomorrow,
  Eb       F
And never mind at all.
    Gm         Eb
But if I should lose your love, dear,
  F     Eb   Dm
I don't know what I'd do,
Eb   Bb    Eb     F7   Bb Eb F
For I know I'll never find another you-ooh-ooh.


SOLO:
    Bb  Eb  C7   F7   Bb  Dm      Eb     F

E ---------1-------------------------1-1-1/3-1---1-1--3-1---1-3-1--
B ---1-3-3---4---3-1---1---------1-3----------------------4--------
G -3-----------------3---3-2---3-----------------------------------
D -----------------------------------------------------------------
A -----------------------------------------------------------------
E -----------------------------------------------------------------


OUTRO:
    Gm         Eb
But if I should lose your love, dear,
  F     Eb   Dm
I don't know what I'd do
Eb  Bb     Gm  Eb  F7  Bb Eb F
For I know I'll never find another you-ooh-ooh.
    Bb Eb F7
Another you-ooh-ooh
    Bb Eb Bb
Another yoooooou

I'll Never Find Another You chords

The Seekers chords for I'll never find another you (Ver. 2) "I'll never find another you" is a hit single by Australian quartet The Seekers. "I'll never find another you" is written by producer Tom Springfield.

The single was released in December 1964.

Find guitar tabs and chords

A B C D E F G H I J K L M N O P Q R S T U V W X Y Z #