Georgy Girl by The Seekers

Georgy Girl bass tab by The Seekers

Bass tabs

Tuning: Standard (E A D G)

🎸 Intro:
G|---------------------|
D|---------------------|
A|---6--7-9-----6--7-9-|
E|-7----------7--------|


🎸 Chorus:                       (Break)
G|-------------------------------------------------------------------|
D|--------------------------------------7--7-7--7--------------------|
A|---6--7-9-----6--7-9-----6--7--7-7--7------------9----------6--7-9-|
E|-7----------7----------7----------------------------------7--------|

G|-------------------------------------|
D|-------------------7-----------------|
A|---6--7-9-----6--7----9--9---9-7-6---|
E|-7----------7----------------------9-|

🎸 Verse 1:
G|---------------------------------------------------------|
D|---------------------------------------------------------|
A|-11--11----------7--7-----------------11-----9---9-7-6-9-|
E|---------11--11--------7--7---11--11------9--------------|

🎸 Chorus:                              (Break)
G|------------------------------------------------------------------|
D|------------------------------------------------------------------|
A|---6--7-9-----6--7-9-----6--7--9---11--11-11---9--9-9---7--7-7--9-|
E|-7----------7----------7------------------------------------------|

🎸 Bridge:
G|----------------------------------|
D|----------------------------------|
A|----7-----9-----6--7-9-----6--7-9-|
E|-7-----7------7----------7--------|

🎸 Interlude:                     (Break)
G|---------------------------------------------------|
D|--------------------------------------7--7-7--7----|
A|---6--7-9-----6--7-9-----6--7--7-7--7------------9-|
E|-7----------7----------7---------------------------|

Part 🎸 Chorus:
G|-----------------------------------------------|
D|-----------------------------7-----------------|
A|---6--7-9-----6—7-9-----6--7----9--9---9-7-6---|
E|-7----------7---------7----------------------9-|

🎸 Verse 2:
G|--------------------------------------------------------|
D|--------------------------------------------------------|
A|-11--11----------7--7-----------------11-----9--9-7-6-9-|
E|---------11--11--------7--7---11--11------9-------------|

🎸 Chorus:                           (Break)
G|------------------------------------------------------------------|
D|------------------------------------------------------------------|
A|---6--7-9-----6--7-9-----6--7--9---11--11-11---9--9-9---7--7-7--9-|
E|-7----------7----------7------------------------------------------|

🎸 Outro:  (Repeat Outro To Fade/End)
G|------------------------------------------|
D|------------------------------------------|
A|---6--7-9-----6--7-9----6--7-9-----6--7-9-|
E|-7----------7---------7----------7--------|

Find guitar tabs and chords

A B C D E F G H I J K L M N O P Q R S T U V W X Y Z #