Guitar Tabs Explorer
Secret Service guitar tabs for Ten oclock postman

Ten Oclock Postman tab


Be the first to rate

Ten Oclock Postman tab by Secret Service

Guitar tabs

Print
[Intro]

e|------------------------------------------------------------------------------------------|
B|------------------------------------------------------------------------------------------|
G|------------------------------------------------------------------------------------------|
D|3-2-5-3---3-2-5-3---7-55-3-3-2-0-2---3-2-5-3---3-2-5-3---7-55-3-8-7-5-3-------------------|
A|------------------------------------------------------------------------------------------|
E|------------------------------------------------------------------------------------------|


e|------------------------------------------------------------------------------------------|
B|------------------------------------------------------------------------------------------|
G|------------------------------------------------------------------------------------------|
D|3-2-5-3---3-2-5-3---7-55-3-3-2-0-2---3-2-5-3---3-2-5-3---7-55-3-8-7-5-3---3---8-7-5-3---3-|
A|------------------------------------------------------------------------------------------|
E|------------------------------------------------------------------------------------------|


[Verse]

e|---------------------------------------------------------------|
B|---------------------------------------------------------------|
G|---------------------------------------------------------------| repeated throughout verse
D|-------------------7-8-5-7-------------------------------------|
A|---------------------------------------------------------------|
E|---------------------------------------------------------------|

e|---------------------------------------------------------------|
B|---------------------------------------------------------------|
G|---------------------------------------------------------------|
D|-------------------3---5---7---8---11---13---15---17-----------|
A|---------------------------------------------------------------|
E|---------------------------------------------------------------|


[Chorus]

e|------------------------------------------------------------------------------------------|
B|------------------------------------------------------------------------------------------|
G|------------------------------------------------------------------------------------------|
D|3-2-5-3---3-2-5-3---7-55-3-3-2-0-2---3-2-5-3---3-2-5-3---7-55-3-8-7-5-3-------------------|
A|------------------------------------------------------------------------------------------|
E|------------------------------------------------------------------------------------------|


e|------------------------------------------------------------------------------------------|
B|------------------------------------------------------------------------------------------|
G|------------------------------------------------------------------------------------------|
D|3-2-5-3---3-2-5-3---7-55-3-3-2-0-2---3-2-5-3---3-2-5-3---7-55-3-8-7-5-3---3---8-7-5-3---3-|
A|------------------------------------------------------------------------------------------|
E|------------------------------------------------------------------------------------------|


[Verse]

e|---------------------------------------------------------------|
B|---------------------------------------------------------------| repeated throughout verse
G|---------------------------------------------------------------|
D|-------------------7-8-5-7-------------------------------------|
A|---------------------------------------------------------------|
E|---------------------------------------------------------------|

e|---------------------------------------------------------------|
B|---------------------------------------------------------------|
G|---------------------------------------------------------------|
D|-------------------3---5---7---8---11---13---15---17-----------|
A|---------------------------------------------------------------|
E|---------------------------------------------------------------|


[Chorus]

e|------------------------------------------------------------------------------------------|
B|------------------------------------------------------------------------------------------|
G|------------------------------------------------------------------------------------------|
D|3-2-5-3---3-2-5-3---7-55-3-3-2-0-2---3-2-5-3---3-2-5-3---7-55-3-8-7-5-3-------------------|
A|------------------------------------------------------------------------------------------|
E|------------------------------------------------------------------------------------------|


e|------------------------------------------------------------------------------------------|
B|------------------------------------------------------------------------------------------|
G|------------------------------------------------------------------------------------------|
D|3-2-5-3---3-2-5-3---7-55-3-3-2-0-2---3-2-5-3---3-2-5-3---7-55-3-8-7-5-3---3---8-7-5-3---3-|
A|------------------------------------------------------------------------------------------|
E|------------------------------------------------------------------------------------------|


[Solo]

e|1-0-3-1---1-0-3-1---1-0-10-8-6--5-3-5---1-0-3-1---1-0-3-1---1-0-10-8-6--5-3-5---1-0-3-1-6-5-3-1|
B|-----------------------------------------------------------------------------------------------|
G|-----------------------------------------------------------------------------------------------|
D|-----------------------------------------------------------------------------------------------|
A|-----------------------------------------------------------------------------------------------|
E|-----------------------------------------------------------------------------------------------|


[Chorus]

e|------------------------------------------------------------------------------------------|
B|------------------------------------------------------------------------------------------|
G|------------------------------------------------------------------------------------------|
D|3-2-5-3---3-2-5-3---7-55-3-3-2-0-2---3-2-5-3---3-2-5-3---7-55-3-8-7-5-3-------------------|
A|------------------------------------------------------------------------------------------|
E|------------------------------------------------------------------------------------------|


e|------------------------------------------------------------------------------------------|
B|------------------------------------------------------------------------------------------|
G|------------------------------------------------------------------------------------------|
D|3-2-5-3---3-2-5-3---7-55-3-3-2-0-2---3-2-5-3---3-2-5-3---7-55-3-8-7-5-3---3---8-7-5-3---3-|
A|------------------------------------------------------------------------------------------|
E|------------------------------------------------------------------------------------------|


[Outro]

e|----------------------------------|
B|----------------------------------|
G|----------------------------------|
D|3-2-5-3---3-2-5-3---7-55-3-3-2-0-2|
A|----------------------------------|

Other versions of Ten Oclock Postman

- Ten oclock postmanChords

Comment this song and these guitar tabs

Do you have corrections, comments on the guitar tabs, thoughts about the song or a message to the author? Write them below.