Log in

One click and you are in

Login with Facebook Login with Google

Why sign up and log in

Guitar Tabs Explorer
The Script bass tabs for Nothing

Bass tabs

Tuning: standard



Intro
G|--9---7-------------7/9---7------------------------------------------------|
D|----------9---7---------------9---7----------------------------------------|
A|---------------------------------------------------------------------------|
E|---------------------------------------------------------------------------|
Verse

G|--9---7-------------7/9---7------------------------------------------------|
D|----------9---7---------------9---7----------------------------------------|
A|---------------------------------------------------------------------------|
E|---------------------------------------------------------------------------|

G|------4-----------------4--------------------------------------------------|
D|--5-------7----4--h5--------7----------------------------------------------|
A|---------------------------------------------------------------------------|
E|---------------------------------------------------------------------------|

G|-----16-14------11-----------16-14------11---------------------------------|
D|--14---------12-----14----14---------12-----14-----------------------------|
A|---------------------------------------------------------------------------|
E|---------------------------------------------------------------------------|

G|-------------------------------11--9---------------------------------------|
D|--------12--9---------------12---------------------------------------------|
A|--9-h10--------12-----9-h10------------------------------------------------|
E|---------------------------------------------------------------------------|


Chorus

G|--7-7-7-7-7-7-7-7----------------------------------------------------------|
D|------------------7-7-7-7-7-7-7-7-9-9-9-9-9-9-9-9-5-5-5-5-5-5-5-5----------|
A|---------------------------------------------------------------------------|
E|---------------------------------------------------------------------------|

G|--7-7-7-7-7-7-7-7----------------------------------------------------------|
D|------------------7-7-7-7-7-7-7-7-9-9-9-9-9-9-9/12-5-5-5-5-5-5-5-5---------|
A|---------------------------------------------------------------------------|
E|---------------------------------------------------------------------------|

Pre-Verse

G|--/9---7-------------------------------------------------------------------|
D|-----------/9---7----------------------------------------------------------|
A|---------------------------------------------------------------------------|
E|---------------------------------------------------------------------------|

Verse

G|-----16-14------11-----------16-14------11---------------------------------|
D|--14---------12-----14----14---------12-----14-----------------------------|
A|---------------------------------------------------------------------------|
E|---------------------------------------------------------------------------|

G|-------------------------------11-11-11-11-9-9-9-9--9/14-------------------|
D|--------12--9---------------12---------------------------------------------|
A|--9-h10--------12-----9-h10------------------------------------------------|
E|---------------------------------------------------------------------------|


Chorus

G|--7-7-7-7-7-7-7-7----------------------------------------------------------|
D|------------------7-7-7-7-7-7-7-7-9-9-9-9-9-9-9-9-5-5-5-5-5-5-5-5----------|
A|---------------------------------------------------------------------------|
E|---------------------------------------------------------------------------|

G|--7-7-7-7-7-7-7-7----------------------------------------------------------|
D|------------------7-7-7-7-7-7-----9-9-9-9-9-9-9/12-5-5-5-5-5-5-5-5---------|
A|------------------------------9-9------------------------------------------|
E|---------------------------------------------------------------------------|

G|--7-7-7-7-7-7-7-7----------------------------------------------------------|
D|------------------7-7-7-7-7-7-7-7-9-9-9-9-9-9-9-9-5-5-5-5-5-5-5-5----------|
A|---------------------------------------------------------------------------|
E|---------------------------------------------------------------------------|

G|--7-7-7-7-7-7-7-7----------------------------------------------------------|
D|------------------7-7-7-7-7-7-----9-9-9-9-9-9-9/12-5-5-5-5-5-5-5-5---------|
A|------------------------------9-9------------------------------------------|
E|---------------------------------------------------------------------------|


Bridge

G|---------------------------------------------------------------------------|
D|--4-4-4-5-5-5-7--7--7--7--/12-12-12-12-12-12-12-12-12-12-12-12-------------|
A|---------------------------------------------------------------------------|
E|---------------------------------------------------------------------------|

G|---------------------------------------------------------------------------|
D|--4-4-4-5-5-5-7--7--7--7------------------------/12-12-12-12---------------|
A|--------------------------5-5-5-5-5-5-5-5-5-5-5----------------------------|
E|---------------------------------------------------------------------------|

G|---------------------------------------------------------------------------|
D|--4-4-4-5-5-5-7--7--7--7--/14-14-14-14-14-14-14-14-14-14-14-14-------------|
A|---------------------------------------------------------------------------|
E|---------------------------------------------------------------------------|

G|---------------------------------------------------------------------------|
D|--4-4-4-5-5-5-7-7-7-7-7-7-7-7-/12~-----------------------------------------|
A|---------------------------------------------------------------------------|
E|---------------------------------------------------------------------------|


Verse

G|--9---7-------------7/9---7------------------------------------------------|
D|----------9---7---------------9---7----------------------------------------|
A|---------------------------------------------------------------------------|
E|---------------------------------------------------------------------------|


Chorus

G|--7-7-7-7-7-7-7-7----------------------------------------------------------|
D|------------------7-7-7-7-7-7-7-7-9-9-9-9-9-9-9-9-5-5-5-5-5-5-5-5----------|
A|---------------------------------------------------------------------------|
E|---------------------------------------------------------------------------|

G|--7-7-7-7-7-7-7-7----------------------------------------------------------|
D|------------------7-7-7-7-7-7-----9-9-9-9-9-9-9/12-5-5-5-5-5-5/17----------|
A|------------------------------9-9------------------------------------------|
E|---------------------------------------------------------------------------|

G|--7-7-7-7-7-7-7-7----------------------------------------------------------|
D|------------------7-7-7-7-7-7-7-7-9-9-9-9-9-9-9-9-5-5-5-5-5-5-5-5----------|
A|---------------------------------------------------------------------------|
E|---------------------------------------------------------------------------|

G|--7-7-7-7-7-7-7-7----------------------------------------------------------|
D|------------------7-7-7-7-7-7-----9-9-9-9-9-9-9/12-5-5-5-5-5-5-5-5---------|
A|------------------------------9-9------------------------------------------|
E|---------------------------------------------------------------------------|

G|--7~-----------------------------------------------------------------------|
D|---------------------------------------------------------------------------|
A|---------------------------------------------------------------------------|
E|---------------------------------------------------------------------------|

| / slide up
| \ slide down
| h hammer-on
| p pull-off
| ~ vibrato
| + harmonic
| x Mute note

Almost there ...

Sign in to get your own page with links to favourite songs and more. You are just one click away...

Login with Facebook Login with Google