Log in

One click and you are in

Login with Facebook Login with Google

Why sign up and log in

Guitar Tabs Explorer
Travis Scott guitar tabs for Drugs you should try it

Guitar tabs

Tuning: Standard (E A D G B E)

Difficulty: Intermediate

x
EADGBE, No Capo, 140bpm, x = slap
                         x
Intro:
e|---------------------------------------------------------------|
B|---------------------------------------------------------------|
G|----2--2--2--2--2--2--2--2-------------------------------------|
D|---------------------------------------------------------------|
A|---------------------------------------------------------------|
E|---------------------------------------------------------------|


VERSE: (Let each note ring throughout)
e|-------------0------------------0------------------------------|
B|-------1--1-----1------------1-----1---------------------------|
G|----2--------------2-----2-------------------------------------|
D|----------------------3----------------------------------------|
A|---------------------------------------------------------------|
E|---------------------------------------------------------------|

e|-------------0-------------------------------------------------|
B|----------3-----3----------------------------------------------|
G|-------1-------------------------------------------------------| Repeat as neeeded
D|----2----------------------------------------------------------|
A|---------------------------------------------------------------|
E|---------------------------------------------------------------|


Chorus:
e|-------------0-----------------0-------------------------------|
B|-------1--1-----1-----------1-----1----------------------------|
G|----2--------------2-----2-------------------------------------|
D|----------x-----------3-----x----------------------------------|
A|----0-----x-----------------x----------------------------------|
E|----------x-----------1-----x----------------------------------|

e|-------------0----------------x--------------------------------|
B|----------3-----3-----------3-x------0-------------------------|
G|-------1-----------1------1---x--------------------------------| Repeat as needed
D|----2-----x-------------2-----x---2----------------------------|
A|----------x-------------------x--------------------------------|
E|----0-----x-----------0-------x-0------------------------------|

Other versions of Drugs You Should Try It

Drugs you should try itChords

↓ Add and view comments below ↓

What do you think about this song and these tabs?

Add your comments, questions, rant or a thumbs up below.

Almost there ...

Sign in to get your own page with links to favourite songs and more. You are just one click away...

Login with Facebook Login with Google