Log in

One click and you are in

Login with Facebook Login with Google

Why sign up and log in

Guitar Tabs Explorer
Scary Pockets bass tabs for Yesterday

Bass tabs

Tuning: Standard (E A D G)


Verse 1:

G|---------------------------------------------------------------------------|
D|---------------------------------------------------------------------------|
A|---------------------------------------------------------------------------|
E|0h3---0h3---0h2---0h7---0h12---0h12-0h10-0h8---0h10------------------------|
G|---------------------------------------------------------------------------|
D|---------------------------------------------------------------------------|
A|---------------------------------------------------------------------------|
E|0h3---0h3-0h2-0-0---0h5---0-8-8-3------------------------------------------|


Verse 2:

G|---------------------------------------------------------------------------|
D|---------------------------------------------------------------------------|
A|---------------------------------------------------------------------------|
E|0h3---0h3---0h2---0h7---0h12---0h12-0h10-0h8---0h10------------------------|

G|---------------------------------------------------------------------------|
D|---------------------------------------------------------------------------|
A|---------------------------------------------------------------------------|
E|0h3---0h3-0h2-0-0---0h5---0-8-8-3------------------------------------------|


Chorus:

G|---------------------------------------------------------------------------|
D|---------------------------------------------------------------------------|
A|---------------------------------------------------------------------------|
E|2/7--12-10-8-7-5---0h10---0h3---0h3----------------------------------------|

G|---------------------------------------------------------------------------|
D|---------------------------------------------------------------------------|
A|---------------------------------------------------------------------------|
E|2/7--12-10-8-7-5---0h10---0h3/7-7-8-10-------------------------------------|


Verse 3:

G|---------------------------------------------------------------------------|
D|---------------------------------------------------------------------------|
A|---------------------------------------------------------------------------|
E|3---0h3---0h2---0h7---0h12---0h12-0h10-0h8---0h10--------------------------|

G|---------------------------------------------------------------------------|
D|---------------------------------------------------------------------------|
A|---------------------------------------------------------------------------|
E|0h3---0h3-0h2-0-0---0h5---0-8-8-3------------------------------------------|



Chorus:

G|---------------------------------------------------------------------------|
D|---------------------------------------------------------------------------|
A|---------------------------------------------------------------------------|
E|2/7--12-10-8-7-5---0h10---0h3---0h3----------------------------------------|

G|---------------------------------------------------------------------------|
D|---------------------------------------------------------------------------|
A|---------------------------------------------------------------------------|
E|2/7--12-10-8-7-5---0h10---0h3/7-7-8-10-------------------------------------|



Outro:

G|---------------------------------------------------------------------------|
D|---------------------------------------------------------------------------|
A|---------------------------------------------------------------------------|
E|3---0h3---0h2---0h7--0h12---0h12-0h10-0h8---0h10---------------------------|

G|---------------------------------------------------------------------------|
D|---------------------------------------------------------------------------|
A|---------------------------------------------------------------------------|
E|0h3---0h3--2-0---0h5---0-10-8-3--------------------------------------------|

G|---------------------------------------------------------------------------|
D|---------------------------------------------------------------------------|
A|---------------------------------------------------------------------------|
E|2-0---0h5---8-8-3----------------------------------------------------------|

G|---------------------------------------------------------------------------|
D|---------------------------------------------------------------------------|
A|---------------------------------------------------------------------------|
E|2-0---0h5---0-8-8-3--------------------------------------------------------|


************************************

| h Hammer-on
| / Slide up

************************************

Almost there ...

Sign in to get your own page with links to favourite songs and more. You are just one click away...

Login with Facebook Login with Google